Song name
# A B C D E F G H I J K L M N O P Q R S T U V W X Y Z

Spill Canvas - Himerus And Eros tab

-------------------------------------------------------------------------------
			     Himerus And Eros - The Spill Canvas
-------------------------------------------------------------------------------
Tabbed by:ibanez_uchiha
Email:

Tuning:standard

This is only the intro but bear with me if it's wrong it's my first time tabbing.

e|--------------------------------------------------------------------------|
B|--------------------------------------------------------------------------|
G|--------------3-----------------------------3-----------------------------|
D|------4-----------4------4--------4--------------4-------4----------------|
A|--2-------2----------2--------2--------2-------------2--------------------|
E|--------------------------------------------------------------------------|

e|--------------------------------------------------------------------------|
B|--------------------------------------------------------------------------|
G|--------------------3---------------------------4----4---3---1------------|
D|----------4--------------4---------4------------------------------4-------|
A|--------------------------------------------------------------------------|
E|----2------------2-------------2---------4--------------------------------|

e|--------------------------------------------------------------------------|
B|--------------------------------------------------------------------------|
G|--------------3-----------------------------3-----------------------------|
D|------4-----------4------4--------4--------------4-------4----------------|
A|--2-------2----------2--------2--------2-------------2--------------------|
E|--------------------------------------------------------------------------|

e|--------------------------------------------------------------------------|
B|--------------------------------------------------------------------------|
G|------------------3---------------------------4----4---3---1--------------|
D|---------4------------4---------4------------------------------4----------|
A|--------------------------------------------------------------------------|
E|----2--------2------------2---------4-------------------------------------|


e|--------------------------------------------------------------------------|
B|--------------------------------------------------------------------------|
G|--------------3-----------------------------3-----------------------------|
D|------4-----------4------4--------4--------------4-------4----------------|
A|--2-------2----------2--------2--------2-------------2--------------------|
E|--------------------------------------------------------------------------|

e|----------------------------------------------------------------------------|
B|----------------------------------------------------------------------------|
G|------------------3----------------------3----------------------------------|
D|---------4------------4---------4--------4----------------------------------|
A|----------------------------------------------------------------------------|
E|----2--------2------------2--------------4----------------------------------|

| /  slide up
| \  slide down
| h  hammer-on
| p  pull-off
| ~  vibrato
| +  harmonic
| x  Mute note
===============================================================================
Tap to rate this tab
# A B C D E F G H I J K L M N O P Q R S T U V W X Y Z