Song name
# A B C D E F G H I J K L M N O P Q R S T U V W X Y Z

Spill Canvas - Reckless Abandonment tab

Reckless Abandonment
The Spill Canvas
No Really I'm Fine
Eb Ab Db Gb Bb eb
nataku/jj murphy

Opening song on the No Really, I'm Fine album.

EDIT 4/15/08:
+ Wicked weird guitar 2 riffs. Can barely hear them though, sorry. 
+ Most of the amount of times you'll stroke each chord is accurate, unless labeled.

intro, guitar 1
|------- -------|
|------- -------|
|-9~-99- -------|
|-9~-99- -9~-99-|
|-7~-77- -9~-99-|
|------- -7~-77-|

guitar 2 (Start of the weird muted riffs)
|-------------|
|----7---7-77-|
|-7h9-7h9--99-|
|-------------|
|-------------|
|-------------|

Verse, Guitar 2
|-------------------------|
|-------------------------|
|-9-----11-12-17-16-13-12-|
|-x(10)-x--x--x--x--x--x--| stroke each note 10 times.
|-7-----9--10-15-14-12-10-|
|-------------------------|

Post Verse, Chorus (Guitar 1)
   Em        G       A         C               Em  B
|----------------------------------------------------|
|----------------------------------------------------|
|----------------------------------------------------|
|-22222222-55555555-77777777-1010101010101010---2-99-| Play the Em/BB
|-22222222-55555555-77777777-1010101010101010---2-99-| Twice at the end
|-00000000-33333333-55555555-8-8-8-8-8-8-8-8----0-77-| of each progression

                                       |-------------| <- guitar 2
                                       |-------------| does this
                                       |-9/11-11-11--| during the Em/BB
                                       |-xxx--x--x---| part above.
                                       |-7/9--9--9---| Play it twice.
                                       |-------------|



bridge, Guitar 1
|-----------------|
|-----------------|
|-----------------|
|-----------------|
|-2---5---7---10--|
|-0---3---5---8---| stroke each note once.


outro, Guitar 2 (comes just before guitar 1)

|-------------------------------------|
|-------------------------------------|
|-99-10-10----12-12-14-14-16-16-17-17-|
|-xx-x--x-----x--x--x--x--x--x--x--x--|
|-77-9--9-----10-10-12-12-14-14-15-15-|
|-------------------------------------|

Outro, Guitar 1
|------------|
|------------|
|------------|
|-2-5-7-10-7-|
|-2-5-7-10-7-|  stroke each note once.
|-0-3-5-8--9-|


End.
Tap to rate this tab
# A B C D E F G H I J K L M N O P Q R S T U V W X Y Z