Song name
# A B C D E F G H I J K L M N O P Q R S T U V W X Y Z

Spill Canvas - Take One Breath tab

Artist: Spill Canvas
Title: Take one breath
Album: n/a

Tabbed by captain_crunch8

This is a tablature in response to the Youtube video labbled "Spill Canvas Acoustic". I 
to dig this puppy up and throw it up seeing that there were many interested viewers 
for a tab.
NOTE, that the intro is how i would play it, not necessarily the best way to. I was bit 
on this one so you'll have to figure out the strumming pattern; and i left out a couple 
ons.
Please comment with understandable corrections. Enjoy.

The video can be found at http://www.youtube.com/watch?v=3qUOwd2opTo&feature=related

Standard - Capo 2


Intro x2

e---x-0-------------------x-0-------------|
B---x-0-------5/8---------x-0-------------|
G---x-0-----5-----7/5-----x-2-2h4p2-------|
D---x-2-2/5-----------5---x-2-------5/4/5-|
A---x-2-------------------x-0-------------|
E---x-0-------------------x-x-------------|


Verse x2

e---0---0---0--0----0----0---0---0---0----|
B---0---0---0--0----0----0---0---0---0----|
G---0---0---0--0----0----0---0---0---2----|
D---2---0---2--0h2--2----2---0---2---2----|
A---2---2---3--3----3----2---2---3---0----|
E---0---3---x--x----x----0---3---x---x----|


Pre Chorus x1

e---0---0---0---0---0---|
B---0---0---0---0---0---|
G---2---0---2---0---0---|
D---2---2---2---2---4---|
A---0---3---0---3---5---|
E---x---x---x---x---x---|


Chorus x2

e---0---0---0---0---|
B---0---0---0---0---|
G---9---7---5---2---|
D---9---7---5---2---|
A---7---5---3---0---|
E---0---x---x---x---|


Fill x2

e---x-0-------------------x-0-------------|
B---x-0-------5/8---------x-0-------------|
G---x-0-----5-----7/5-----x-2-2h4p2-------|
D---x-2-2/5-----------5---x-2-------5/4/5-|
A---x-2-------------------x-0-------------|
E---x-0-------------------x-x-------------|


Verse x2

e---0---0---0--0----0----0---0---0---0----|
B---0---0---0--0----0----0---0---0---0----|
G---0---0---0--0----0----0---0---0---2----|
D---2---0---2--0h2--2----2---0---2---2----|
A---2---2---3--3----3----2---2---3---0----|
E---0---3---x--x----x----0---3---x---x----|


Pre Chorus x1

e---0---0---0---0---0---|
B---0---0---0---0---0---|
G---2---0---2---0---0---|
D---2---2---2---2---4---|
A---0---3---0---3---5---|
E---x---x---x---x---x---|


Chorus x2

e---0---0---0---0---|
B---0---0---0---0---|
G---9---7---5---2---|
D---9---7---5---2---|
A---7---5---3---0---|
E---0---x---x---x---|


Bridge x1

e---0---0---0---0---0---0---0---0---0---0---|
B---0---0---0---0---0---0---0---0---0---0---|
G---0---0---0---0---0---0---0---2---0---2---|
D---4---2---4---2---4---2---4---2---2---2---|
A---5---3---5---3---5---3---5---0---3---0---|
E---x---x---x---x---x---x---x---x---x---x---|


Chorus x2

e---0---0---0---0---|
B---0---0---0---0---|
G---9---7---5---2---|
D---9---7---5---2---|
A---7---5---3---0---|
E---0---x---x---x---|


End on

e---0---|
B---0---|
G---0---|
D---2---|
A---2---|
E---0---|
Tap to rate this tab
# A B C D E F G H I J K L M N O P Q R S T U V W X Y Z