Guitaretab - guitar tabs
Song name
# A B C D E F G H I J K L M N O P Q R S T U V W X Y Z

Spill Canvas - Rock Bottom tab

INTRO

e|----------------|----------|
B|-----2----2-----|-------2--|
G|--------4---2---|-----2----|
D|----------------|---4------| X2
A|---0---0--------|----------|
E|----------------|----------|

                                ..."say goodbye"
e|------|---x---|------|------|     |-----|
B|---5--|---x---|------|------|     |-----|
G|---6--|---4---|------|--7---|     |---7-|
D|---7--|---4---|--2---|--7---| X4  |---7-|
A|------|---4---|--2---|--5---|     |---9-|
E|------|---2---|--0---|--0---|     |-----|


RERPEAT UNTIL END!
guitar two at "im seriously contemplating..."
[ Tab from: http://www.guitaretab.com/s/spill-canvas/176391.html ]
e|---------------------------|----------------------------|
B|---------------------------|----------------------------|
G|---4/6/4-------4-----------|--4/6/4-------4-------------|
D|----------7--7-----2--2/4-4|---------7--7----2--2/4-4--2|
A|---------------------------|----------------------------|
E|---------------------------|----------------------------|

after "in these endless night to come"
guitar one:

e|-0--0---0--|
B|-0--0---0--|
G|-2--11--9--|
D|-2--11--9--|
A|-0--9---7--|
E|-0--0---0--|

end with:

e|---0-----|
B|---0-----|
G|---2----2|
D|---2----2|
A|---0----0|
E|---0----0|
Related for Rock Bottom tab
Rock Bottom chords by Spill Canvas