Song name
# A B C D E F G H I J K L M N O P Q R S T U V W X Y Z

Spill Canvas - All Over You Acoustic tab

-----------------------------------------------------------------
                  ALL OVER YOU - Spill Canvas
-----------------------------------------------------------------
Tabbed by: Richard Hatton
Email: rhatton@hotmail.co.uk

Tuning: Eb Ab Db Gb Bb Eb

I have tabbed this from this youtube video:
http://www.youtube.com/watch?v=gUGuLnvqUnM

I am not sure this is 100% correct because there are weird variations and strumming 
Pretty sure
this is played half a step down.

Rhythm Chords

Am     - x02210
F5     - 133xxx
Cadd9  - 032030
G*     - 302030
F      - xx3211
C*     - x30030
Dsus   - xx0230
Em     - 022000


Intro/Riff
                 Am                                  F5
E|--------------------------------------------------------------------------|
B|--------------------------------------------------------------------------|
G|--------------------------------------------------------------------------|X2
D|-2-2-2-2-2-2-2-2/5-5-5\3-3-3\2-2------3-3-3-3-3-3-3-3-2-2-2-0-0-0-2-2-----|
A|-0-0-0-0-0-0-0-0-0-0-0-0-0-0-0-0------3-3-3-3-3-3-3-3-3-3-3-3-3-3-3-3-----|
E|--------------------------------------1-1-1-1-1-1-1-1-1-1-1-1-1-1-1-1-----|

Verse

   Yeah, he's a looker,     But I really think it's guts that matter most

E|--------------------------------------------------------------------------|
B|--------------------------------------------------------------------------|
G|--------------------------------------------------------------------------|
D|-2-2-2-2-2-2-2-2/5-5-5\3-3-3\2-2------3-3-3-3-3-3-3-3-2-2-2-0-0-0-2-2-----|
A|-0-0-0-0-0-0-0-0-0-0-0-0-0-0-0-0------3-3-3-3-3-3-3-3-3-3-3-3-3-3-3-3-----|
E|--------------------------------------1-1-1-1-1-1-1-1-1-1-1-1-1-1-1-1-----|

    I displayed them for you            Strewn out about from coast to coast
E|--------------------------------------------------------------------------|
B|--------------------------------------------------------------------------|
G|--------------------------------------------------------------------------|
D|-2-2-2-2-2-2-2-2/5-5-5\3-3-3\2-2------3-----------Let Ring----------------|
A|-0-0-0-0-0-0-0-0-0-0-0-0-0-0-0-0------3- ---------Let Ring----------------|
E|--------------------------------------1-----------Let Ring----------------|


Verse continued/Pre Chorus
(The strumming pattern involves sting muting here. Listen to the song to pick it up. Im 
sure its:  strum mute, strum mute, strum mute)

Am                        F5
   I am easily make believe Just dress me up in what you want me to be
Cadd9            F5
   I'll take back what I've been saying For quite some time now


Chorus
 G*               Am
  I gotta feel you in my bones again
 F                 F
  I'm all over you, I'm not over you
 G*               Am
  I wanna taste you one more time again
 F                 F
  I'm all over you, I'm not over you

E|--------------------------------------------------------------------------|
B|--------------------------------------------------------------------------|
G|--------------------------------------------------------------------------|
D|-2-2-2-2-2-2-2-2/5-5-5\3-3-3\2-2------3-3-3-3-3-3-3-3-2-2-2-0-0-0-2-2-----|
A|-0-0-0-0-0-0-0-0-0-0-0-0-0-0-0-0------3-3-3-3-3-3-3-3-3-3-3-3-3-3-3-3-----|
E|--------------------------------------1-1-1-1-1-1-1-1-1-1-1-1-1-1-1-1-----|

Am                            F5
  In my daydreams, in my sleep.Infatuation turning into disease
Cadd9               F5
  You could cure me. See all you have to do now is please
Am                            F5
  try, Give it your best shot and try. All I'm asking for
Cadd9                         F5
is love...But you never seem to have enough


Chorus 2
 G*               Am
  I gotta feel you in my bones again
 F                 F
  I'm all over you, I'm not over you
 G*               Am
  I wanna taste you one more time again
 F                 F
  I'm all over you, I'm not over you
 G*            Am
  This life is way too short
 F                 F
  To get caught up in all this stuff
 G*                       Am
  When i just want you to love me back
 F                   F
  Why can't you just love me back?



Bridge
Am        C*       Dsus2                 G*      F                    Em            Am
                                                    Why can't you just love me back?
Am        C*       Dsus2                 G*      F                    Em            Am
Why can't you           (Why can't you?)            Why can't you just love me back?
Am        C*       Dsus2                 G*      F                    Em            Am
Why can't you           (Why can't you?)            Why can't you just love me back?
Am        C*       Dsus2                 G*      F                    Em            Am
Why can't you           (Why can't you?)            Why can't you just love me back?

Chorus 3
 G*               Am
  I gotta feel you in my bones again
 F                 F
  I'm all over you, I'm not over you
 G*               Am
  I wanna taste you one more time again
 F                 F
                     Just one more time
 G*            Am
  This life is way too short
 F                 F
  To get caught up and all mixed up
 G*                       Am
  When i just want you to love me back
 F                   F
  Why can't you just love me back?

Outro
                                        Why won't you just love me back?
E|--------------------------------------------------------------------------|
B|--------------------------------------------------------------------------|
G|--------------------------------------------------------------------------|
D|-2-2-2-2-2-2-2-2/5-5-5\3-3-3\2-2------3-3-3-3-3-3-3-3-2-2-2-0-0-0-2-2-----|
A|-0-0-0-0-0-0-0-0-0-0-0-0-0-0-0-0------3-3-3-3-3-3-3-3-3-3-3-3-3-3-3-3-----|
E|--------------------------------------1-1-1-1-1-1-1-1-1-1-1-1-1-1-1-1-----|


                                        Why can't you just love me back?
E|-----------------------------------------------------------------------X-|
B|-----------------------------------------------------------------------0-|
G|-----------------------------------------------------------------------2-|
D|-2-2-2-2-2-2-2-2/5-5-5\3-3-3\2-2------3-3-3-3-3-3-3-3-2-2-2-0-0-0-2-2--2-|
A|-0-0-0-0-0-0-0-0-0-0-0-0-0-0-0-0------3-3-3-3-3-3-3-3-3-3-3-3-3-3-3-3--1-|
E|--------------------------------------1-1-1-1-1-1-1-1-1-1-1-1-1-1-1-1--0-|


| /  slide up
| \  slide down
| h  hammer-on
| p  pull-off
| ~  vibrato
| +  harmonic
| x  Mute note
Tap to rate this tab
 
# A B C D E F G H I J K L M N O P Q R S T U V W X Y Z