Song name
# A B C D E F G H I J K L M N O P Q R S T U V W X Y Z

Spill Canvas - Hush Hush tab

Lead intro:
e------------------------------------------|
b--7h8-8-xx-7------------------------------|
g--7h9-9-xx-7-----------9p7-9--------------|
d-------------7-7-5-7s9-------7s9-7--------|
a-----------------------------------7*-6---|  x2
E------------------------------------------|

*Ghost note..play lightly

Rhythm Intro:
e---------------------------------------|
b---------------------------------------|
g---------------------------------------|
d------5-5-7-7------------4-4-----------|
a-2-2--3-3-5-5--2-2--5-5--2-2-----------|  x2
E-0-0-----------0-0--3-3----------------|

Verse:
e------------------    -------------------------------------------|
b------------------    -------------------------------------------|
g------------------    -------------------------------------------|
d------2---5---4~--    -------------2-2---2-2-2--5-5---5-5-5--4~--|
a--2---0---3---2~--    2-2---2-2-2--0-0---0-0-0--3-3---3-3-3--2~--|
E--0--------------- x2 0-0---0-0-0--------------------------------| x2

Pre-Chorus
e------------------|
b------------------|
g------------------|
d-5    ----4    ---|
a-3 x16----2 x16---|
E------------------|

Chorus: (same as the intro)

*solo coming sooon
------------------
Tap to rate this tab
 
# A B C D E F G H I J K L M N O P Q R S T U V W X Y Z