Song name
# A B C D E F G H I J K L M N O P Q R S T U V W X Y Z

Spill Canvas - Staplegunned tab

e|------------------------------------------------------------------------|
b|-------------------------------------------------------555--------------|
g|4444-----4444------------------4444----444/777/111111--777--------------|
d|4444-----4444------------------4444----444/777/111111--777---5-55-5-----| x2
a|0202-----0202---22220000-------0202----222/555/999-----555---5-55-5-----|
e|------------------------2222---------------------------------3-33-3-----|
PM                ............

   figure out strumming pattern, these are the chords
e|------------------------------------------------------|
b|------------------------------------------------------|
g|------7--------7--------7-----------------------------|
d|7--5--7--7--5--7--7--5--7--7--10--5-------------------|  x2
a|7--5--5--7--5--5--7--5--5--7--10--5-------------------|
e|5--3-----5--3-----5--3-----5--8---3-------------------|

e|-------------------------------------------------------|
b|-------------------------------------------------------|
g|4444---777--99-7---4444---16-14-11-----77-x9-----------|
d|4444---777--99-7---4444---14-12-9------77-x9-----------|
a|0202---555--77-5---0202----------------55-x7-----------|
e|-------------------------------------------------------|


e|------------------------------------------------------------------------|
b|-------------------------------------------------------555--------------|
g|4444-----4444------------------4444----444/777/111111--777--------------|
d|4444-----4444------------------4444----444/777/111111--777---5-55-5-----| x2
a|0202-----0202---22220000-------0202----222/555/999-----555---5-55-5-----|
e|------------------------2222---------------------------------3-33-3-----|
PM                ............


e|------------------------------------------------------|
b|------------------------------------------------------|
g|------7--------7--------7-----------------------------|
d|7--5--7--7--5--7--7--5--7--7--10--5-------------------|  x2
a|7--5--5--7--5--5--7--5--5--7--10--5-------------------|
e|5--3-----5--3-----5--3-----5--8---3-------------------|


                                                  (background)
e|------------------------------------          -----------------|
b|------------------------------------          ----------2/4----|
g|------------------------------------          -444444---2/4----|
d|-----4-54--------------4-54---------  x2      -----------------|  x2
a|-0202----2---------0202-------------          -----------------|
e|-----------33-3-------------0-2-3---          -----------------|
PM                                               ......


e|-------------------------------------|
b|-------------------------------------|
g|-----7--------7--------7-------------|
d|--5--7--7--5--7--7--5--7--7--10--5---|  x3
a|--5--5--7--5--5--7--5--5--7--10--5---|
e|--3-----5--3-----5--3-----5--8---3---|


      (background to ^^^[last 17 seconds of song])
e|--------------------------------------------------------------|
b|--10101010\777\555\3-7/101010----3333/555--10101010\777\555\3-|
g|--------------------------------------------------------------|
d|--------------------------------------------------------------|
a|--------------------------------------------------------------|
e|--------------------------------------------------------------|


   end with...
e|----------|
b|----------|
g|-4444-----|
d|-4444-----|
a|-0202-----|
e|----------|                  PLEASE RATE (:
Tap to rate this tab
# A B C D E F G H I J K L M N O P Q R S T U V W X Y Z