Song name
# A B C D E F G H I J K L M N O P Q R S T U V W X Y Z

Spill Canvas - Bracelets tab

----------------------------------------------------------------------------
			 Bracelets- The Spill Canvas
----------------------------------------------------------------------------
Tabbed by: tyler wiese
Email: weezy1@wi.rr.com

Tuning: standard
Guitar 1
e|-------------------------------------------------------------------------|
B|-------------------------------------------------------------------------|
G|---2h4-2--------------------2h4-2----------------------------------------|
D|---------0------------------------0--------------------------------------|
A|-----------5p0-4h5-4p0---------------4p0-4h5-4p0-------------------------|
E|-3~---------------------3~-----------------------------------------------|

Guitar 2
e|---------3-----2---------------------------------------------------------|
B|---------3-----3------3--------------------------------------------------|
G|---------0-----0------0--------------------------------------------------|
D|---------0-----0------0--------------------------------------------------|
A|-------------------------------------------------------------------------|
E|-------------------------------------------------------------------------|

Guitar 1
e|-------------------------------------------------------------------------|
B|-------------------------------------------------------------------------|
G|-------------------------------------------------------------------------|
D|----4h5-4-----------------------4h5-4------------------------------------|
A|-2~-------2---5p0-4h5-4p0----2~-------2----4p0-4h5-4p0-------------------|
E|-------------------------------------------------------------------------|

Guitar 2
e|-------------------------------------------------------------------------|
B|---------------3--2h3-2h3------------------3--2h3-2h3--------------------|
G|---------------2--2---3--------------------2--3---3----------------------|
D|-------------------------------------------------------------------------|
A|-------------------------------------------------------------------------|
E|-------------------------------------------------------------------------|

Verse 1
e|-------------------------------------------------------------------------|
B|-------------------------------------------------------------------------|
G|-----2-------------------------4--------------------------2--------------|
D|---0---4-0---0-2-4-2p0-------4---4-----0-2-4-2p0--------0---4-0---0-2-4--|
A|-----------0-----------2p0-2-------2-0-----------4p0------------0--------|
E|-3----------------------------------------------------3------------------|

e|-------------------------------------------------------------------------|
B|------------3------------------------------------------------------------|
G|------------4-4------------------------------------------4-4-------------|
D|2po-------4-----4---0-2-4-2p0----------0-4-2-2-2-2-----4---------2-2-2---|
A|----2p0-2---------0-----------4p0----2-------------0-2-------2-0---------|
E|-----------------------------------3-------------------------------------|






e|-------------------------------------------------------------------------|
B|----------------------3--------------------------------------------------|
G|----2-------------------4---------------2---------2----------------------|
D|--0---4-0---2-2-2---4-----4---2-2-2---0---4-4---0---4-4---2-2-2-2-2-2----|
A|----------0-------2---------2---------------------------0----------------|
E|3-----------------------------------3---------3--------------------------|


e|------------------------------------------------------------------------|
B|--3--------------------------2-222-2222-22-33-333-2-222-22--------------|
G|---4-4---222---2------2------2-222-2222-22-22-222-2-222-22--------------|
D|-0--0---0-------4-4----4-4---2-222-2222-22-22-222-2-222-22--------------|
A|2------0------5--5---5--5--0--------------------------------------------|
E|-------------3------3---------------------------------------------------|
Chorus:

e|-------------------------------------------------------------------------|
B|-------------------------------------------------------------------------|
G|--------------7---------------------7------------------------------------|
D|-5x5x5x-5-5---7---7-----------5-5---7---7--------------------------------|
A|-5x5x5x-5-5---5---7--9-7-5/4--5-5---5---7--------------------------------|
E|-3x3x3x-3-3-------5-----------3-3-------5--------------------------------|

e|-------------------------------------------------------------------------|
B|-----3-222-333-----------------------3-222-333---------------------------|
G|-----4-444-444-----0-----------------4-444-444-----0---------------------|
D|-----0-000-000-----4-2h4p2-----------0-000-000-----4---------------------|
A|-2-2-2-------------5------5p4p2--2-2-2-------------5---------------------|
E|---------------3-3-3---------------------------3-3-3---------------------|
 continues until

e|-------------------------------------------------------------------------|
B|---3----5--------------3----5--------------------------------------------|
G|--4-4--6-6---2----4---4-4--6-6---2----4----------------------------------|
D|------------4-4--4-4------------4-4--4-4---------------------------------|
A|-2----4--------------2----4----------------------------------------------|
E|-----------3----3--------------3----3------------------------------------|

e|-------------------------------------------------------------------------|
B|---3--2--0----3---2------------------------------------------------------|
G|---4--4--4----2---2------7-----------------------------------------------|
D|---0--0--5----2---2---5--7--7--------------------------------------------|
A|---2-----3------------5--5--7--------------------------------------------|
E|----------------------3-----5--------------------------------------------|


************************************

| /   slide up
| \   slide down
| h   hammer-on
| p   pull-off
| ~   vibrato
| +   harmonic
| x   Mute note
| b   Bend
| pb  Pre-bend
| br  Bend release
| pbr Pre-bend release
| brb Bend release bend

************************************

Tap to rate this tab
# A B C D E F G H I J K L M N O P Q R S T U V W X Y Z