Song name
# A B C D E F G H I J K L M N O P Q R S T U V W X Y Z

Spill Canvas - Good Graces Bad Influence tab

-------------------------------------------------------------------------------
			    Good Graces, Bad Influence - The Spill Canvas
-------------------------------------------------------------------------------
Tabbed by: Matt Davenport
Email:	tribal_@hotmail.co.uk

Tuning: Standard

There weren't any tabs for this song yet, so I thought I would submit my progress,
unfortunately missing the solo and a couple of fills at the moment - but working on it 
Note that this
is from the 'Abnormalities' ep so may change on the final version for the album.

If you find any errors, mention them in the comments, I will check and update as
regularly as possible, thanks :)

Intro:
e|-------------------------------------------------------------------------------|
B|-------------------------------------------------------------------------------|
G|-------------------------------------------------------------------------------|
D|------------8----------8----------------------8----------8/10------------------|
A|-------8/10---10-8-6-8---------6---------8/10---10-8-6-8------8----------------|
E|-8-7-8-------------------6-7-8-----8-7-8------------------------10-------------|
   * * * * *  * *  * * * * * * * *   * * * * *  * *  * * * * *  * *
Verse:
e|-------------------------------------------------------------------------------|
B|-------------------------------------------------------------------------------|
G|-------------------------------------------------------------------------------|
D|------------8----------8----------------------8----------8/10------------------|
A|-------8/10---10-8-6-8---------6---------8/10---10-8-6-8------8----------------|
E|-8-7-8-------------------6-7-8-----8-7-8------------------------10-------------|

Chorus:
e|-------------------------------------------------------------------------------|
B|-------------------------------------------------------------------------------|
G|-5-----------------------------7-7-x-7-7-7-x-x---------------------------------|
D|-6--------10-10-x-10-10-10-x-x-8-8-x-8-8-8-x-x---------------------------------|
A|-6-x16----10-10-x-10-10-10-x-x-8-8-x-8-8-8-x-x---------------------------------|
E|-4--------8--8--x-8--8--8--x-x-6-6-x-6-6-6-x-x---------------------------------|

End on:
e|--------|
B|--------|
G|--------|
D|--------|
A|--------|
E|-5------|

Intro
Verse x 3
Chorus x 2
Verse x 2
Chorus x 2
Solo
Chorus x 4
Verse
End on


| /  slide up
| \  slide down
| h  hammer-on
| p  pull-off
| ~  vibrato
| +  harmonic
| x  Mute note
| *  Palm Mute
===============================================================================
Tap to rate this tab
# A B C D E F G H I J K L M N O P Q R S T U V W X Y Z