Song name
# A B C D E F G H I J K L M N O P Q R S T U V W X Y Z

Spill Canvas - Dont Let Your Enemies Become Friends Acoustic tab

-------------------------------------------------------------------------------
	      Don't let your enemies become friends - The Spill Canvas
-------------------------------------------------------------------------------
Tabbed by: Matt Davenport
Email:	tribal_@hotmail.co.uk

Tuning: Standard

I originally tabbed this song out for the acoustic version on youtube - http://
www.youtube.com/watch?v=h6sbckExPfs - but realised that these tabs
work for the real song too! If you want to play to that youtube video, you
just need to tune half a step down :)

If you have any questions, comments or need any help - leave a comment or email me :)

Note that the strumming changes throughout but I haven't tabbed it out - it's not too
difficult to figure out when listening to it

Verse:
e|-------------------------------------------------------------------------------|
B|-------------------------------------------------------------------------------|
G|-------------2~-1~----------2~-1~----------------------------------------------|
D|-6~-6~-6~-4~-2~-2~-4~-\-----2~-2~-4~-------------------------------------------|
A|-4~-3~-2~-1~-0~-2~-4~--x2---0~-2~-4~-------------------------------------------|
E|-------------------2~-/-----------2~-------------------------------------------|

Chorus:
e|-------------------------------------------------------------------------------|
B|-------------------------------------------------------------------------------|
G|-11-111-66-666-22-222-22-222---66-666-44-444-22-222-22-222-\---------2~-1~-----|
D|-22-222-66-666-22-222-22-222---66-666-44-444-22-222-22-222---x2---4~-2~-2~-----|
A|-22 222-44-444-00-000-00-000---44-444-22-222-00-000-00-000-/------4~-0~-2~-----|
E|------------------------------------------------------------------2~-----------|

Bridge:
e|-------------------------------------------------------------------------------|
B|-------------------------------------------------------------------------------|
G|-6-\----1-\----2-\-----------6-\----9-\----2-\---------------------------------|
D|-6--x8--2--x8--2--x8--4-\----6--x8--9--x8--2--x8--4-\--------------------------|
A|-4-/----2-/----0-/----4--x8--4-/----7-/----0-/----4--x12-----------------------|
E|----------------------2-/-------------------------2-/--------------------------|

Chorus B:
e|-------------------------------------------------------------------------------|
B|-------------------------------------------------------------------------------|
G|-7~-6~-222xx-\---6666-4444-22222222------6666-22222222x6666-4444-22222222------|
D|-7~-6~-222xx--x4-6666-4444-22222222-6666-6666-22222222x6666-4444-22222222------|
A|-9~-4~-000xx-/---4444-2222-00000000-6666-4444-00000000x4444-2222-00000000------|
E|------------------------------------4444---------------------------------------|

End on:
e|-------------------------------------------|
B|-------------------------------------------|
G|------2222-11111111------2222-1x1x1111111--|
D|-4444-2222-22222222-4444-2222-2x2x2222222--|
A|-4444-0000-22222222-4444-0000-2x2x2222222--|
E|-2222---------------2222-------------------|

Verse
Chorus
Verse
Chorus
Bridge
Chorus B
End on


| /  slide up
| \  slide down
| h  hammer-on
| p  pull-off
| ~  vibrato
| +  harmonic
| x  Mute note
===============================================================================
Tap to rate this tab
# A B C D E F G H I J K L M N O P Q R S T U V W X Y Z