Song name
# A B C D E F G H I J K L M N O P Q R S T U V W X Y Z

Spill Canvas - Teleport A And B tab

The Spill Canvas
Teleport A & B
I looked everywhere for a good tab but all I found was one tab which was used for every
that had this song, and I didn't like the tab so much, so I figured I would try to tab
out myself.  I have never posted a tab before so this is my first one, but I think it 
a lot like it.

Half a step down and Drop D

Verse
Eb |--3------2------0------x-----------|
Bb |--3------3------3------3-----------|
Gb |--0------2------4------5-----------|
Db |--5------4------2------5-----------|          X4
Ab |--5------0------2------5-----------|
Db |--5------x------2------0-----------|
"Alright that's it..."

Eb |--0------x------3------2---------|
Bb |--3------3------3------3---------|
Gb |--0------x------0------2---------|
Db |--2------0------5------4---------|        X1
Ab |--2------5------5------0---------|
Db |--2------0------5------x---------|
"The moisture in the air..."

Eb |--0------x-------x------x-------|
Bb |--3------3-------x------x-------|
Gb |--0------x-------2------4-------|
Db |--2------0-------2------4-------|      X1
Ab |--2------5-------0------2-------|
Db |--2------0-------x------x-------|
"The memory of your stare..."


Chorus
Eb |--3------3-------2------0------------|
Bb |--3------3-------3------3------------|
Gb |--0------0-------2------0------------|
Db |--5------5-------4------2------------|           X2
Ab |--5------5-------0------2------------|
Db |--5------4-------x------2------------|
"Hypothetically if you were point A..."

Chorus
Eb |--3------3------x-------x------x------3------2------0---------|
Bb |--3------3------x-------x------x------3------3------3---------|
Gb |--0------0------2-------4------5------0------2------0---------|
Db |--5------5------2-------4------5------5------4------2---------|        X1
Ab |--5------5------0-------2------3------5------0------2---------|
Db |--5------4------x-------x------x------5------x------2---------|
"We would be we would be..."

Eb |--x------x-------x-------|
Bb |--x------x-------x-------|
Gb |--x------x-------x-------|
Db |--5------4-------0-------|      X1
Ab |--5------4-------0-------|
Db |--5------4-------0-------|


Verse 2
Eb |--3------2------0------x-----------|
Bb |--3------3------3------3-----------|
Gb |--0------2------4------5-----------|
Db |--5------4------2------5-----------|          X4
Ab |--5------0------2------5-----------|
Db |--5------x------2------0-----------|
"Constanty you're working..."

Eb |--0------x------3------2--------|
Bb |--3------3------3------3--------|
Gb |--0------x------0------2--------|
Db |--2------0------5------4--------|       X1
Ab |--2------5------5------0--------|
Db |--2------0------5------x--------|
"The moisture in the air..."

Eb |--0------x-------x------x-------|
Bb |--3------3-------x------x-------|
Gb |--0------x-------2------4-------|
Db |--2------0-------2------4-------|      X1
Ab |--2------5-------0------2-------|
Db |--2------0-------x------x-------|
"The memory of your stare..."


Chorus
Eb |--3------3-------2------0------|
Bb |--3------3-------3------3------|
Gb |--0------0-------2------0------|
Db |--5------5-------4------2------|     X2
Ab |--5------5-------0------2------|
Db |--5------4-------x------2------|
"Hypothetically if you were point A..."

Chorus
Eb |--3------3------x-------x------x------3------2------0-----|
Bb |--3------3------x-------x------x------3------3------3-----|
Gb |--0------0------2-------4------5------0------2------0-----|
Db |--5------5------2-------4------5------5------4------2-----|    X1
Ab |--5------5------0-------2------3------5------0------2-----|
Db |--5------4------x-------x------x------5------x------2-----|
"We would be we would be..."

Eb |--x------x-------x-------|
Bb |--x------x-------x-------|
Gb |--x------x-------x-------|
Db |--5------4-------0-------|      X1
Ab |--5------4-------0-------|
Db |--5------4-------0-------|


Eb |--x------x-------x-------x-------x-------x-------x-------x-------x-------x--|
Bb |--x------x-------x-------x-------x-------x-------x-------x-------x-------x--|
Gb |--5------x-------5-------x-------x-------5-------x-------5-------x-------x--|
Db |--5------5-------5-------2-------4-------5-------5-------5-------2-------4--|        X1
Ab |--3------5-------3-------2-------5-------3-------5-------3-------2-------5--|
Db |--x------5-------x-------2-------4-------x-------5-------x-------2-------4--|
"My faith in you could move..."


Chorus
Eb |--3------3-------2------0----------|
Bb |--3------3-------3------3----------|
Gb |--0------0-------2------0----------|
Db |--5------5-------4------2----------|         X2
Ab |--5------5-------0------2----------|
Db |--5------4-------x------2----------|
"Hypothetically if you were point A..."

Chorus
Eb |--3------3------x-------x------x------3------2------0---------|
Bb |--3------3------x-------x------x------3------3------3---------|
Gb |--0------0------2-------4------5------0------2------0---------|
Db |--5------5------2-------4------5------5------4------2---------|        X2
Ab |--5------5------0-------2------3------5------0------2---------|
Db |--5------4------x-------x------x------5------x------2---------|
"We would be we would be..."

Outro
Eb |--x------x-------x---------|
Bb |--x------x-------x---------|
Gb |--x------x-------x---------|
Db |--5------4-------0---------|        X1
Ab |--5------4-------0---------|
Db |--5------4-------0---------|
Tap to rate this tab
 
# A B C D E F G H I J K L M N O P Q R S T U V W X Y Z