Song name
# A B C D E F G H I J K L M N O P Q R S T U V W X Y Z

Spill Canvas - Home Sick tab

This song sounds tricky but it's actually fairly straightforward. The rhythms are quite
but give the song a few listens with the tab in front of you and you should be able to
them up. I'm still working on a complete tab of the song, but seeing as there don't seem 
be any accurate tabs up at the moment I thought I'd get this basic version out there.

p = Pull-Off
/ = Slide

Intro (Guitar 1)

e|-------------------------|
B|-------------------------|
G|-------------------------|
D|-44--2p0---------0--0-0--|
A|-44------2p0-----0-------|
D|-44----------4-2-0------0|

e|-------------------------|
B|-------------------------|
G|-------------------------|
D|-44--2p0---------0--2-2--|
A|-44------2p0-----0--2-2--|
D|-44----------4-2-0--2-2--| x2

Guitar 1

e|-------------------------|
B|-------------------------|
G|-------------------------|
D|-44--2-2p0---------------|
A|-44--------0-2-4-2-0-----|
D|-44----------------------|

Guitar 2

e|-------------------------|
B|-----5-5p3---------------|
G|-----------2-4-6-4-2-----|
D|-------------------------|
A|-------------------------|
D|-------------------------|

Verse

Before Vocals

Guitar 1 [this is the basic rhythm, but listen to the song for the exact rhythm]

e|-------------------------|
B|-------------------------|
G|-------------------------|
D|-4--4-4--4--4-4----------|
A|-4--4-4--4--4-4----------|
D|-4--4-4--4--4-4----------|

e|-------------------------|
B|-------------------------|
G|-------------------------|
D|-4-7--7-7-777777---------|
A|-4-7--7-7-777777---------|
D|-4-5--5-4-444444---------|

e|-------------------------|
B|-------------------------|
G|-------------------------|
D|-7--7-7/99999999---------|
A|-7--7-7/99999999---------|
D|-5--5-5/77777777---------| x2

Guitar 2 (guitar 2 stops once the vocals come in)

e|-------------------------|
B|-----------2--5----------|
G|-------2-4-------2-------|
D|-----4-------------------|
A|-------------------------|
D|-------------------------|

e|-----0-2-0---------------|
B|------------2--3---------|
G|-------------------------|
D|-------------------------|
A|-------------------------|
D|-------------------------|  x4

After Vocals Enter (Guitar 2 stops)

Guitar 1

e|-------------------------|
B|-------------------------|
G|-------------------------|
D|-4--4424--4-4424--444----|
A|-4--4424--4-4424--444----|
D|-4--4424--4-4424--444----|

e|-------------------------|
B|-------------------------|
G|-------------------------|
D|-7--7777-7777--555/99999-|
A|-7--7777-7777--555/99999-|
D|-5--5554-4445--555/77777-| x2

Chorus (Guitar 1) [These are the chords, listen to the song for the exact rhythm]

e|-------------------------|
B|-------------------------|
G|-----6-------2-4---------|
D|-4---6---2---2-4---------|
A|-4---4---2---0-2---------|
D|-4-------2---------------|
Tap to rate this tab
 
# A B C D E F G H I J K L M N O P Q R S T U V W X Y Z