Spill Canvas - Our Song Acoustic tab

Capo 5th Fret

Intro/Verse:

e|-----------------------------------------------------|
B|-------5--------5--------5------5--------------------|
G|-----0--------0--------0------0----------------------|
D|---0--------0--------0-------------------------------|
A|-5--------3------------------------------------------|
E|-------------------3-------3-------------------------|

(Play twice for the intro, and another four times for each verse)

Guitar 2 (also capo 5)Plays:

(...But I forget the lines...)

e|---------------------------------------|
B|---------------------------------------|
G|-0-2/12-----0-2/12---------------------|
D|---------------------------------------|
A|---------------------------------------|
E|---------------------------------------|


Pre-Chorus and Chorus Chords:

 Dsus4     Em7     Cadd9      G

e|-3--------3--------3--------3--------------|
B|-3--------3--------3--------3--------------|
G|-2--------0--------0--------0--------------|
D|-0--------2--------2--------0--------------|
A|-0--------2--------3--------2--------------|
E|-2--------x--------x--------3--------------|

----------------------------------------------------------------------------
Pre-Chorus:

Dsus4       Em7    Cadd9          G
   We never were, we'll never be

Chorus:

G                                Dsus4
Strangers kissing in the pouring rain

                            Em7
Chasing after your leaving train,

             Cadd9
but we know, that's not how our song goes, Oh

G                              Dsus4
You're a waitress in a cocktail bar

                                    Em7
And I save you cause I'm a big rock star,

             Cadd9
but we know, that's not how our song goes, it goes

----------------------------------------------------------------------------

The short, Post-Chorus Solo thing goes like this:

e|--------------------------|
B|-----5--------------------|
G|-4/7---4-4h5-4------------|
D|--------------------------|
A|--------------------------|
E|--------------------------|


That's essentially the whole song. I don't feel like tabbing out the solo, but I'm 
sure you guys can figure it out. ;D enjoy and rate!
Tap to rate this tab
 
# A B C D E F G H I J K L M N O P Q R S T U V W X Y Z