Song name
# A B C D E F G H I J K L M N O P Q R S T U V W X Y Z

Spill Canvas - All Over You tab

-----------------------------------------------------------------------------
			     All Over You  The Spill Canvas
-----------------------------------------------------------------------------

Tabbed by: stratotastic

Tuning: Standard
	Capo on 1st fret

Guitar 1:
e|----------------------------------------------------------------|
B|----------------------------------------------------------------|
G|----------------------------------------------------------------|
D|2-2-2-2-2-2-2-2-5-5-5-3-3-3-2-2-3-3-3-3-3-3-3-3-2-2-2-0-0-0-2-2-|
A|0-0-0-0-0-0-0-0-0-0-0-0-0-0-0-0-3-3-3-3-3-3-3-3-3-3-3-3-3-3-3-3-|
E|--------------------------------1-1-1-1-1-1-1-1-1-1-1-1-1-1-1-1-| x3


Guitar 1:
e|----------------------------------------------------------------|
B|----------------------------------------------------------------|
G|----------------------------------------------------------------|
D|2-2-2-2-2-2-2-2-5-5-5-3-3-3-2-2-3-3-3-3-3-3-3-3-3-3-3-3-3-3-3-3-|
A|3-3-3-3-3-3-3-3-3-3-3-3-3-3-3-3-3-3-3-3-3-3-3-3-3-3-3-3-3-3-3-3-|
E|--------------------------------1-1-1-1-1-1-1-1-1-1-1-1-1-1-1-1-|


Strumming goes (D, D, U,D,U,D, D, U,D,U)
Guitar 1:
e|----------------------------------------------------------------|
B|1---x-----1-x-x-1---x-----1-x-x---------------------------------|
G|0---x-----0-x-x-0---x-----0-x-x---------------------------------|
D|2---x-----2-x-x-2---x-----2-x-x-3---x-----3-x-x-3---x-----3-x-x-|
A|0---x-----0-x-x-0---x-----0-x-x-3---x-----3-x-x-3---x-----3-x-x-|
E|--------------------------------1---x-----1-x-x-1---x-----1-x-x-|

Guitar 2:
e|----------------------------------------------------------------|
B|--------------------------------1---x-----1-x-x-1---x-----1-x-x-|
G|5---x-----5-x-x-5---x-----------2---x-----2-x-x-2---x-----2-x-x-|
D|7---x-----7-x-x-7---x---9-10-9--3---x-----3-x-x-3---x-----3-x-x-|
A|----------------------------------------------------------------|
E|----------------------------------------------------------------|


Guitar 1:
e|3---x-----3-x-x-3---x-----3-x-x---------------------------------|
B|3---x-----3-x-x-3---x-----3-x-x---------------------------------|
G|0---x-----0-x-x-0---x-----0-x-x---------------------------------|
D|x---x-----x-x-x-x---x-----x-x-x-3---x-----3-x-x-3---3-----3-3-3-|
A|3---x-----3-x-x-3---x-----3-x-x-3---x-----3-x-x-3---3-----3-3-3-|
E|--------------------------------1---x-----1-x-x-1---1-----1-1-1-|

Guitar 2:
e|----------------------------------------------------------------|
B|8---x-----8-x-x-8---x-----8-x-x-1---x-----1-x-x-1---1-------1---|
G|9---x-----9-x-x-9---x-----9-x-x-2---x-----2-x-x-2---2-----2---2-|
D|10--x-----10x-x-10--x-----10x-x-3---x-----3-x-x-3---3-----------|
A|----------------------------------------------------------------|
E|----------------------------------------------------------------|


Guitar 1: Slight accents (*)      
      *       *       *       *       *       *       *       *     
e|3-3-3-3-3-3-3-3-0-0-0-0-0-0-0-0-0-0-0-0-0-0-0-0-0-0-0-0-0-0-0-0-|
B|3-3-3-3-3-3-3-3-1-1-1-1-1-1-1-1-1-1-1-1-1-1-1-1-1-1-1-1-1-1-1-1-|
G|0-0-0-0-0-0-0-0-0-0-0-0-0-0-0-0-0-0-0-0-0-0-0-0-0-0-0-0-0-0-0-0-|
D|0-0-0-0-0-0-0-0-2-2-2-2-2-2-2-2-2-2-2-2-2-2-2-2-2-2-2-2-2-2-2-2-|
A|x-x-x-x-x-x-x-x-0-0-0-0-0-0-0-0-3-3-3-3-3-3-3-3-3-3-3-3-3-3-3-3-|
E|3-3-3-3-3-3-3-3-------------------------------------------------| x2

Guitar 2:
e|----3-3-3-3---0---0-0-0-0-0-0-0-3-3-3-3-3-3---------------------|
B|----3-6-3-----1---1-1-1-1-1-1-1-3-6-3---3-5/9\3-----------------|
G|----------5/7\2---2-2-2-2-2-2-2-------5-----------4---4---------|
D|--------------2---2-2-2-2-2-2-2-----------------3---3-----x---x-|
A|--------------0---2-2-2-2-2-2-2-------------------------x---x---|
E|----------------------------------------------------------------|
 |
e|----3-3-3-3---0---0-0-0-0-0-0-0-3-3-3-3-3-3---------------------|
B|----3-6-3-----1---1-1-1-1-1-1-1-3-6-3---3-5/9\3-----------------|
G|----------5/7\2---2-2-2-2-2-2-2-------5-----------4---4---------|
D|--------------2---2-2-2-2-2-2-2-----------------3---3---3-5-3-3-|
A|--------------0---2-2-2-2-2-2-2-------------------------------0-|
E|----------------------------------------------------------------|


Guitar 1:
e|----------------------------------------------------------------|
B|----------------------------------------------------------------|
G|----------------------------------------------------------------|
D|2-2-2-2-2-2-2-2-5-5-5-3-3-3-2-2-3-3-3-3-3-3-3-3-2-2-2-0-0-0-2-2-|
A|0-0-0-0-0-0-0-0-0-0-0-0-0-0-0-0-3-3-3-3-3-3-3-3-3-3-3-3-3-3-3-3-|
E|--------------------------------1-1-1-1-1-1-1-1-1-1-1-1-1-1-1-1-|


Guitar 1:
e|----------------------------------------------------------------|
B|1---x-----1-x-x-1---x-----1-x-x---------------------------------|
G|0---x-----0-x-x-0---x-----0-x-x---------------------------------|
D|2---x-----2-x-x-2---x-----2-x-x-3---x-----3-x-x-3---x-----3-x-x-|
A|0---x-----0-x-x-0---x-----0-x-x-3---x-----3-x-x-3---x-----3-x-x-|
E|--------------------------------1---x-----1-x-x-1---x-----1-x-x-|

Guitar 2:
e|--------------5-------------------------------1-----------------|
B|------5-----------5---5---------------1---------1-----1-----1-/-|
G|----5---5---5-------5-----5---------2-----2---------------2-----|
D|----------7-----------------7-\-3-----------3-------3-----------|
A|----------------------------------------------------------------|
E|----------------------------------------------------------------|


Guitar 1:
e|3---x-----3-x-x-3---x-----3-x-x---------------------------------|
B|3---x-----3-x-x-3---x-----3-x-x---------------------------------|
G|0---x-----0-x-x-0---x-----0-x-x---------------------------------|
D|x---x-----x-x-x-x---x-----x-x-x-3---x-----3-x-x-3---3-----3-3-3-|
A|3---x-----3-x-x-3---x-----3-x-x-3---x-----3-x-x-3---3-----3-3-3-|
E|--------------------------------1---x-----1-x-x-1---1-----1-1-1-|

Guitar 2:
e|--------------8-------------------------------1-----------------|
B|8-----8---------------8---------------1---------1-----1-----1---|
G|----9-------9-------9-------9-\-2---2-----2---------------2-----|
D|--------------------------10----------------3-------3-----------|
A|----------------------------------------------------------------|
E|----------------------------------------------------------------|


Strumming goes (D, D, U, U)
Guitar 1:
e|----------------------------------------------------------------|
B|1---1-----1---1-1---1-----1---1---------------------------------|
G|0---0-----0---0-0---0-----0---0---------------------------------|
D|2---2-----2---2-2---2-----2---2-3---3-----3---3-3---3-----3---3-|
A|0---0-----0---0-0---0-----0---0-3---3-----3---3-3---3-----3---3-|
E|--------------------------------1---1-----1---1-1---1-----1---1-|

Guitar 2:
e|----------------------------------------------------------------|
B|--------------------------------1---1-----1---1-1---1-----1---1-|
G|5---5-----5---5-5---5-----5---5-2---2-----2---2-2---2-----2---2-|
D|7---7-----7---7-7---7-----7---7-3---3-----3---3-3---3-----3---3-|
A|----------------------------------------------------------------|
E|----------------------------------------------------------------|


Guitar 1:
e|3---3-----3---3-3---3-----3---3---------------------------------|
B|3---3-----3---3-3---3-----3---3---------------------------------|
G|0---0-----0---0-0---0-----0---0---------------------------------|
D|x---x-----x---x-x---x-----x---x-3---3-----3---3-3-3-3-3-3-3-3-3-|
A|3---3-----3---3-3---3-----3---3-3---3-----3---3-3-3-3-3-3-3-3-3-|
E|--------------------------------1---1-----1---1-1-1-1-1-1-1-1-1-|

Guitar 2:
e|----------------------------------------------------------------|
B|8---8-----8---8-8---8-----8---8-1---1-----1---1-1-1-1-1-1-1-1-1-|
G|9---9-----9---9-9---9-----9---9-2---2-----2---2-2-2-2-2-2-2-2-2-|
D|10--10----10--1010--10----10--103---3-----3---3-3-3-3-3-3-3-3-3-|
A|----------------------------------------------------------------|
E|----------------------------------------------------------------|


Guitar 1:
      *       *       *       *       *       *       *       *
e|3-3-3-3-3-3-3-3-0-0-0-0-0-0-0-0-0-0-0-0-0-0-0-0-0-0-0-0-0-0-0-0-|
B|3-3-3-3-3-3-3-3-1-1-1-1-1-1-1-1-1-1-1-1-1-1-1-1-1-1-1-1-1-1-1-1-|
G|0-0-0-0-0-0-0-0-0-0-0-0-0-0-0-0-0-0-0-0-0-0-0-0-0-0-0-0-0-0-0-0-|
D|0-0-0-0-0-0-0-0-2-2-2-2-2-2-2-2-2-2-2-2-2-2-2-2-2-2-2-2-2-2-2-2-|
A|x-x-x-x-x-x-x-x-0-0-0-0-0-0-0-0-3-3-3-3-3-3-3-3-3-3-3-3-3-3-3-3-|
E|3-3-3-3-3-3-3-3-------------------------------------------------| x4

Guitar 2:
e|----3-3-3-3---0---0-0-0-0-0-0-0-3-3-3-3-3-3------------------------|
B|----3-6-3-----1---1-1-1-1-1-1-1-3-6-3---3-5/9\3--------------------|
G|----------5/7\2---2-2-2-2-2-2-2-------5-----------4---4------16-16-|
D|--------------2---2-2-2-2-2-2-2-----------------3---3---14-14------|
A|--------------0---2-2-2-2-2-2-2------------------------------------|
E|-------------------------------------------------------------------|
 |
e|----3-3-3-3---0---0-0-0-0-0-0-0-3-3-3-3-3-3---------------------|
B|----3-6-3-----1---1-1-1-1-1-1-1-3-6-3---3-5/9\3-----------------|
G|----------5/7\2---2-2-2-2-2-2-2-------5-----------4---4---------|
D|--------------2---2-2-2-2-2-2-2-----------------3---3-----x---x-|
A|--------------0---2-2-2-2-2-2-2-------------------------x---x---|
E|----------------------------------------------------------------| x2
(end on open A 2nd time)


Guitar 1:
e|--------|
B|--------|
G|--------|
D|2-------|
A|0-------|
E|--------|


Guitar 1:
e|----------------------------------------------------------------|
B|----------------------------------------------------------------|
G|----------------------------------------------------4-----4-----|
D|----------------------------5-5-3-3-3-3-3-3-3-3-2-2---2-2---2-2-|
A|0-0-0-0-0-0-0-0-3-3-3-5-5-5-------------------------------------|
E|----------------------------------------------------------------| x3


Guitar 1:
e|----------------------------------------------------------------|
B|----------------------------------------------------------------|
G|----------------------------------------------------------------|
D|----------------------------5-5-3-3-3-3-3-3-3-3-2-2-2-2-2-0-----|
A|0-0-0-0-0-0-0-0-3-3-3-5-5-5---------------------------------3-2-|
E|----------------------------------------------------------------|

 
Guitar 1:
     *       *       *       *       *       *       *       *
e|3-3-3-3-3-3-3-3-0-0-0-0-0-0-0-0-0-0-0-0-0-0-0-0-0-0-0-0-0-0-0-0-|
B|3-3-3-3-3-3-3-3-1-1-1-1-1-1-1-1-1-1-1-1-1-1-1-1-1-1-1-1-1-1-1-1-|
G|0-0-0-0-0-0-0-0-0-0-0-0-0-0-0-0-0-0-0-0-0-0-0-0-0-0-0-0-0-0-0-0-|
D|0-0-0-0-0-0-0-0-2-2-2-2-2-2-2-2-2-2-2-2-2-2-2-2-2-2-2-2-2-2-2-2-|
A|x-x-x-x-x-x-x-x-0-0-0-0-0-0-0-0-3-3-3-3-3-3-3-3-3-3-3-3-3-3-3-3-|
E|3-3-3-3-3-3-3-3-------------------------------------------------| x4

Guitar 2:
e|----3-3-3-3---0---0-0-0-0-0-0-0-3-3-3-3-3-3------------------------|
B|----3-6-3-----1---1-1-1-1-1-1-1-3-6-3---3-5/9\3--------------------|
G|----------5/7\2---2-2-2-2-2-2-2-------5-----------4---4------16-16-|
D|--------------2---2-2-2-2-2-2-2-----------------3---3---14-14------|
A|--------------0---2-2-2-2-2-2-2------------------------------------|
E|-------------------------------------------------------------------|
 |
e|----3-3-3-3---0---0-0-0-0-0-0-0-3-3-3-3-3-3---------------------|
B|----3-6-3-----1---1-1-1-1-1-1-1-3-6-3---3-5/9\3-----------------|
G|----------5/7\2---2-2-2-2-2-2-2-------5-----------4---4---------|
D|--------------2---2-2-2-2-2-2-2-----------------3---3-----x---x-|
A|--------------0---2-2-2-2-2-2-2-------------------------x---x---|
E|----------------------------------------------------------------| x2
(end on open A 2nd time)


Guitar 1:
e|----------------------------------------------------------------|
B|----------------------------------------------------------------|
G|----------------------------------------------------------------|
D|2-2-2-2-2-2-2-2-5-5-5-3-3-3-2-2-3-3-3-3-3-3-3-3-2-2-2-0-0-0-2-2-|
A|0-0-0-0-0-0-0-0-0-0-0-0-0-0-0-0-3-3-3-3-3-3-3-3-3-3-3-3-3-3-3-3-|
E|--------------------------------1-1-1-1-1-1-1-1-1-1-1-1-1-1-1-1-|


Guitar 1:
e|-------------------------|
B|-------------------------|
G|0------------------------|
D|2------------------------|
A|0------------------------|
E|-------------------------|
Tap to rate this tab
 
# A B C D E F G H I J K L M N O P Q R S T U V W X Y Z