Song name
# A B C D E F G H I J K L M N O P Q R S T U V W X Y Z

Spill Canvas - Rock Bottom chords

Highlighted       Show chord diagrams
Artist: The Spill Canvas
Song: Rock Bottom


Tuning: Half Step Down


hey guys it wasn't easy to figure out these chords but i finally got it ;-)
and don't be confused about this Ebm7b5 its definetly right!!






Chords Used: A     (x 0 2 2 2 0) or (5 7 7 6 5 5)
             F#m   (2 4 4 2 2 2)
             E     (0 2 2 1 0 0)
             Dmaj7 (x 5 7 6 7 x) or (x x 0 2 2 2)
             Ebm7b5(x 6 7 6 7 x) or (x x 1 2 2 2)



Intro:

eb|------------------|------------|
Bb|-----2-------2----|---------2--|
Gb|----------4-------|------2-----|
Db|------------------|---4--------| X2
Ab|---0---0----------|------------|
Eb|------------------|------------|


Riff: starts at the "seriously contemplating"-part

eb|--------------------------------|------------------------------|
Bb|--------5--------------------2--|------------------------------|
Gb|--4/6---------4------------2----|--4/6--4-----4----------------|
Db|-----------7------2--2/4-4------|----------7------2--2/4-4--2--|
Ab|--------------------------------|------------------------------|
Eb|--------------------------------|------------------------------|






    A
you know you've hit rock bottom
            F#m                   E
when you're mumbling the words to all her favorite songs
         Dmaj7
till the neighbors can hear your drunken slurs

    A                                F#m
you know the end is creeping up when all
                           E
that you can feel were the faint remnants of touching her
    Ebm7b5            Dmaj7
and wishing they were real.





    A
you know you've hit rock bottom
         F#m                    E
when you constantly refuse to take down
Dmaj7
all the photographs from the times that she was with you.

    A
You know the end is nigh
         F#m
when you repeatedly deny
    E
the fact that she is
                 Ebm7b5           Dmaj7
in the earth and you never got to say goodbye






A        Dmaj7
marigold whithers away
         Ebm7b5               Dmaj7
and this world never felt so cold
   A                  Dmaj7
my marigold oh it's a miracle
         Ebm7b5              Dmaj7
that you kept me alive this long.





    A                        Dmaj7
I'm seriously contemplating chewing off my tongue
   F#m                                           E
to prevent from screaming out your name in these endless nights to come

    A                        Dmaj7
I'm seriously contemplating chewing off my tongue
   F#m                                           E
to prevent from screaming out your name in these endless nights to come 






Outro: A D F#m E 2x



eb|--------------------------------|------------------------------|
Bb|--------5-----------------------|------------------------------|
Gb|--4/6---------4-----------------|--4/6--4-----4----------------|
Db|-----------7------2--2/4--4--4--|----------7------2--2/4-4--2--|
Ab|--------------------------------|------------------------------|
Eb|--------------------------------|------------------------------|



eb|--------------------------------|------------------------------|
Bb|--------5--------------------2--|------------------------------|
Gb|--4/6---------4------------2----|--4/6--4-----4----------------|
Db|-----------7------2--2/4-4------|----------7------2--2/4-4--2--|
Ab|--------------------------------|------------------------------|
Eb|--------------------------------|------------------------------|




End on A




Tap to rate this tab
# A B C D E F G H I J K L M N O P Q R S T U V W X Y Z