Song name
# A B C D E F G H I J K L M N O P Q R S T U V W X Y Z

Spill Canvas - Hush Hush tab

I've never written a tab before so I hope you all like this and find it useful! If you 
add the vibratos where it says(just listen to the song you'll hear them)then it should 
sound pretty much like the original.


e|---------------------------------------------------------------|
B|---------------10----------------------------------------------|
G|-3s9-9-9-9-7s9----3s4-4-4-4-4b5r4------------------------------|
D|---------------------------------------------------------------|
A|---------------------------------------------------------------|
E|---------------------------------------------------------------|
        ^^^vibrato the 9's(e) and the 4's(b)
e|-------------17----19----15----15----14b15(r14)----------------|
B|-12s17-17-17----17----17----17----17---------------------------|
G|---------------------------------------------------------------|
D|---------------------------------------------------------------|
A|---------------------------------------------------------------|
E|---------------------------------------------------------------|
         ^^vibrato those 17's(e)
Tap to rate this tab
# A B C D E F G H I J K L M N O P Q R S T U V W X Y Z