Song name
# A B C D E F G H I J K L M N O P Q R S T U V W X Y Z

Spill Canvas - Parallels And Money chords

Highlighted       Show chord diagrams
Artist: The Spill Canvas
Song: Parallels and Money
Album: Gestalt






For the Album Version: Capo on 1st fret

the 'acoustic in the kitchen'- Version: half step down







F#m*  ( 2 x 2 2 0 0 )
C#m*  ( x 4 6 6 0 0 )
Dsus2 ( x x 0 2 3 0 )  
E     ( x 7 9 9 0 0 )   if you want you can use this E instead of the standard-chord

instead of the Dsus2 in the chorus you can also play ( x 5 7 7 0 0 )









Intro and Verse Riff:

   A    E    F#m*

e|----0----------------------|
B|---------------------0-----|
G|---------2------2-------2--|
D|------------------2--------|
A|--0------------------------|
E|------0----0h2-------------|


   A    E    F#m*

e|----0----------------0---|
B|-------------------------|
G|---------2------2--------|
D|------------------2------|
A|--0----------------------|
E|------0----0h2-----------|




Intro 1x


A      E                F#m*
 Don't forget about the money you owe me baby

A      E                F#m*



A              E        F#m*             A     E        F#m*
I know you are good for it but that was long before you left me
A     E   F#m*                   A    E     F#m*
 I really hope he drops you in a week, that sounds about right
           A       E                F#m*               A    E      F#m*
about the time it takes until he is bored with your community physique 






C#m*          E
  I think I'm gonna be sick


Dsus2    A            E
  I wont ever find my parallel
           Dsus2         A               E
I cant afford to keep my balance on your carousel 






A   E    F#m*
                       A         E      F#m*
Don't forget about the money you owe me baby




A    E    F#m*           A   E      F#m*
 The high road doesn't satisfy like any other many future
A     E                 F#m*                 A       E        F#m*
drunk dials when you're cold and alone and I faintly hear you cry




C#m*          E
  I think you're making me sick






Dsus2    A            E
  I wont ever find my parallel
           Dsus2         A               E
I cant afford to keep my balance on your carousel
             C#m*    Dsus2              A              E
Must just be easy to impair but now I'm more than well aware
Dsus2    A            E
  I wont ever find my parallel  (I think you're making me sick)




Bridge:


    A   E   E F#m*  E F#m* 

e|--0---0---0-0-----0-0---|
B|--2---0---0-0-----0-0---|
G|--2---1---9/11----9/11--|
D|--2---2---9/11----9/11--|
A|--0---2---7/9-----7/9---|
E|------0-----------------|


    A   E   E F#m*  E F#m* 

e|--0---0---0-0-----0-0---|
B|--2---0---0-0-----0-0---|
G|--2---1---9/11----9/11--|
D|--2---2---9/11----9/11--|
A|--0---2---7/9-----7/9---|
E|------0-----------------|

    C#m*  E

e|--0-----0----|
B|--0-----0----|
G|--6-----1----|
D|--6-----2----|
A|--4-----2----|
E|--------0----|



Dsus2    A            E
  I wont ever find my parallel






Dsus2    A            E
  I wont ever find my parallel
           Dsus2         A               E
I cant afford to keep my balance on your carousel
             C#m*    Dsus2              A              E
Must just be easy to impair cos now I'm more than well aware
Dsus2    A            E
that I wont ever find my parallel  (I think I'm gonna be sick)



A    E    F#m*

                        A         E       F#m*
 Don't forget about the money you owe me baby


A    E    F#m*

A    E    F#m*
Tap to rate this tab
# A B C D E F G H I J K L M N O P Q R S T U V W X Y Z