Song name
# A B C D E F G H I J K L M N O P Q R S T U V W X Y Z

Spill Canvas - Sabotage Internal tab

Artist: The Spill Canvas
Song: Sabotage Internal
Album: Gestalt







Tuning: Half Step down



Intro and Vers-Riff:

eb|-----------------------------------------------------|
Bb|-----------------------------------------------------|
Gb|-----------------------------------------------------|
Db|--------0-----------0-----------0-----------0--------|
Ab|-----4-----4-----4-----4-----4-----4-----4-----4-----|
Eb|--5-----------5-----------5----------5------------5--|



eb|-----------------------------------------------------|
Bb|-----------------------------------------------------|
Gb|-----------------------------------------------------|
Db|--------0-----------0-----------0-----------0--------|
Ab|-----4-----4-----4-----4-----4-----4-----4-----4-----|
Eb|--3-----------3-----------3----------3------------3--|




eb|-----------------------------------------------------|
Bb|-----------------------------------------------------|
Gb|--------------------2--------------------------1-----|
Db|--------3-----------------3--------2--------------2--|
Ab|-----3-----3-----3-----3--------2-----2-----2--------|
Eb|--1-----------1--------------0-----------0-----------|


eb|-----------------------------------------------------|
Bb|-----------------------------------------------------|
Gb|-----------------------------------------------------|
Db|--------0-----------0-----------0-----------0--------|
Ab|-----4-----4-----4-----4-----4-----4-----4-----4-----|
Eb|--5-----------5-----------5----------5------------5--|




Intro: 1x


Vers: 2x



Chorus:

             A
I dont wanna stay scared
             G
Living in a dayland
F               E
burn up this mirage






Intro: 1x


Vers: 1x






Chorus:

             A
I dont wanna stay scared
             G
Living in a dayland
F             E
burn up this mirage


             A
I dont wanna stay scared
             G
Living in a dayland
F
burn up this mirage
       E
in my internal sabotage






Solo

A      A

G      G

F      E

A      A








Chorus:

             A
I dont wanna stay scared
             G
Living in a dayland
F             E
burn up this mirage


             A
I dont wanna stay scared
             G
Living in a dayland
F
burn up this mirage
       E
in my internal sabotage


Repeat until the end
Tap to rate this tab
# A B C D E F G H I J K L M N O P Q R S T U V W X Y Z