Song name
# A B C D E F G H I J K L M N O P Q R S T U V W X Y Z

Spill Canvas - From San Francisco tab

Artist: The Spill Canvas
Song: From San Francisco
Album: Gestalt




Tuning: Half Step Down





eb|-----------------------------------------------------|
Bb|-----------------------------------------------------|
Gb|-------0-----------------------0---------------------|
Db|--2h4-----4--2--------0---2h4-----4--2-----2--4--2---|
Ab|----------------5--2--------------------5------------|
Eb|-----------------------------------------------------|



eb|------------------------------------------------------|
Bb|------------------------------------------------------|
Gb|------------------------------------------------------|
Db|----------0--------0--2--0--2----------0-------0------|
Ab|-----0h2-----2--4-----------------0h2-----2--4----0---|
Eb|--3----------------------------3----------------------|



Vers:

D
Inferno me my bridges
                                        G
I'm sure you two have a lot of catching up to do

Like me and you


D
So much for the truce
I swear you're awake ever time I blink
   G 
oh what's your new excuse?


Chorus:

                    Bm
Yeah, we don't talk anymore
   Em
and that's alright by me
                           A
Cause I don't know who you are
   D                G          D
Or who you expected me to be

                           eb|-------------------------|
                           Bb|-------------------------|
                           Gb|-------0-----------------|
                           Db|--2h4-----4--2--------0--|
                           Ab|----------------5--2-----|
                           Eb|-------------------------|


Vers:

D
You can't do much better
                                        G
and I can't do much worse so what's the point anyway?

Our love is rotten with decay


D
Used to be time when I couldn't tell the difference
                                G
Where I left off and you picked back up again

Now I can't comprehend




Chorus:

                    Bm
Yeah, we don't talk anymore
   Em
and that's alright by me
                           A
Cause I don't know who you are
   D                G
Or who you expected me to be



Bm                             Em
I messed up somewhere down the line (down the line)
      A
Now I can't be happy (now I can't be happy)
    D           G
Without being high


Solo:

    Bm                   Em

eb|-----------------------------------------|
Bb|-----------------------------------------|
Gb|--------7-------------------9------------|
Db|--7--9-----9--9--9----7--9-----9--9--9---|
Ab|-----------------------------------------|
Eb|-----------------------------------------|


   A                     D           G

eb|---------------------------------------------|
Bb|---------------------------------------------|
Gb|---------------------------------------------|
Db|--7--9--9---2--4--4----4--2------------------|
Ab|-----------------------------5--4------0--1--|
Eb|-----------------------------------3---------|


     Bm                         Em

eb|----------10-------------------------12--------------|
Bb|--10--12-------10--12--12----10--12------10--12--12--|
Gb|-----------------------------------------------------|
Db|-----------------------------------------------------|
Ab|-----------------------------------------------------|
Eb|-----------------------------------------------------|


    A                       G                D

eb|---------------------------------------------|
Bb|--10--12--12---5--7--7----7--5------------3--|
Gb|--------------------------------7--6------2--|
Db|--------------------------------------5---0--|
Ab|---------------------------------------------|
Eb|---------------------------------------------|




Chorus:

                    Bm
Yeah, we don't talk anymore
   Em
and that's alright by me
                           A
Cause I don't know who you are
   D                G
Or who you expected me to be



Bm                             Em
I messed up somewhere down the line (down the line)
      A
Now I can't be happy (now I can't be happy)
    D           G
Without being high



Outro:


    D

eb|-----------------------------------------------------|
Bb|-----------------------------------------------------|
Gb|-------0-----------------------0---------------------|
Db|--2h4-----4--2--------0---2h4-----4--2-----2--4--2---|
Ab|----------------5--2--------------------5------------|
Eb|-----------------------------------------------------|


    G

eb|-------------------------------------------------------|
Bb|-------------------------------------------------------|
Gb|-------------------------------------------------------|
Db|----------0--------0--2--0--2----------0-------0----0--|
Ab|-----0h2-----2--4-----------------0h2-----2--4----0----|
Eb|--3----------------------------3-----------------------|



Repeat until fade-out
Tap to rate this tab
 
# A B C D E F G H I J K L M N O P Q R S T U V W X Y Z