Song name
# A B C D E F G H I J K L M N O P Q R S T U V W X Y Z

Spill Canvas - Flaws tab

Artist: The Spill Canvas
Song: Flaws



Tuning: Half Step Down

Chords Used: C#m7b5 ( x 4 5 4 5 x )
             C#    ( x 4 5 3 5 x )



Intro:

    Bm                     D                        C#m7b5          A
eb|----------------------------------------------|----------------------------|
Bb|-------------5b7b5b7b5-------------5b7b5b7b5--|----------------------------|
Gb|-------7----------------------7---------------|-------7-----7--6-----------|
Db|-9--9----9--------------7--7----7-------------|--5--5---5------------------|
Ab|----------------------------------------------|----------------------------|
Eb|----------------------------------------------|----------------------------|






Vers1:
  Bm                                 D
I never remember birthdays but I can never forget the sound of your name
    C#m7b5                               A          C#
The structure of vowels and letters flow perfectly together
    Bm                               D
I m terrible with crowds but I could brave the bars if you wanna go out
 C#m7b5                               A
Faking I m a charmer, you see that s part of the armor






Chorus:
G              Bm           A
  I ll take my swollen pride and lay it down tonight
G        Bm         A
  Oh, if only for a moment of your time
G                 Bm         A
  And then you ll finally see how it s supposed to be
G        Bm             A
  Our flaws dissolve in love so easily



   Bm
e|--7--7--7--7--------|
B|--7--7--7--7--------|       on the record the last two slide notes are seperated
G|--7--7--7--7--7/9---|       
D|--9--9--9--9--9/11--|
A|--9--9--9--9--------|
E|--7--7--7--7--------|



Vers2:
         Bm                          D
Well I m addicted to coffee but I d give up the cup if you wanted me
C#m7b5                                       A
Completely change my lifestyle all for the sake of one smile
    Bm                                   D
I m hardly punctual but I could rearrange my usual
C#m7b5                           A
For once I will be early, you won t be able to resist me






Chorus:

G              Bm           A
  I ll take my swollen pride and lay it down tonight
G        Bm         A
  Oh, if only for a moment of your time
G                 Bm         A
  And then you ll finally see how it s supposed to be
G        Bm             A
  Our flaws dissolve in love so easily





Bridge:
Bm                       Em
I ll change everything I do 
G                                   D          A
Take whatever measures possible to accommodate you
Bm                        Em
I don t put much faith in anything at all 
              G                                     D         A
But I feel confident when you re around and I m not afraid to fall




Chorus:

G              Bm           A
  I ll take my swollen pride and lay it down tonight
G        Bm         A
  Oh, if only for a moment of your time
G                 Bm         A
  And then you ll finally see how it s supposed to be
G        Bm             A
  Our flaws dissolve in love so easily



Outro:

    Bm                       D                          C#m7b5            A
eb|---------------------------------------------------|-----------------------------|
Bb|----------------5b7b5b7b5---------------5b7b5b7b5--|------------------------5----|
Gb|-----------7-----------------------7---------------|-------7-----6p7b6----6---6--|
Db|--7--7--9----9-------------7--7--9---7-------------|--5--5---5----------7--------|
Ab|---------------------------------------------------|-----------------------------|
Eb|---------------------------------------------------|-----------------------------|


    Bm                       D                          C#m7b5            A                 Bm
eb|---------------------------------------------------|----------------------------------------|
Bb|----------------5b7b5b7b5---------------5b7b5b7b5--|------------------------5-------5----7--|
Gb|-----------7-----------------------7---------------|-------7-----6p7b6----6---6---6---6--7--|
Db|--7--7--9----9-------------7--7--9---7-------------|--5--5---5----------7-------8--------9--|
Ab|---------------------------------------------------|----------------------------------------|
Eb|---------------------------------------------------|----------------------------------------|

Tap to rate this tab
 
# A B C D E F G H I J K L M N O P Q R S T U V W X Y Z