Song name
# A B C D E F G H I J K L M N O P Q R S T U V W X Y Z

Spill Canvas - Break A Leg tab

Artist: The Spill Canvas
Song: Break A Leg
Album: One Fell Swoop






Tuning: Half Step Down



Intro:

    Am                                Em        F

eb|---------------------------------|----------------5--|
Bb|---------------------------------|----------------5--|
Gb|------------------------------5--|----------------5--|
Db|---------------------------7-----|--5--5-----7/9-----|
Ab|-------8--7-----7----7h8---------|--------7----------|
Eb|---5---------8-------------------|-------------------|





Vers:

Am                                  Em
   I used to wanna feel your summer sweat
        F
seeping right into my eyes
Am                                Em                   F
   I used to wanna feel your body quake when I sink my teeth into your thighs



Am                                        Em
  Where did you come from, where have you been?
  F                        Am
I don't know that much about you,
            Em                 F
but I don't think that I would like to anymore




Chorus:

Am              Dm                   Em
   The curtains rising just like the ante
        C       G
Here we go now, break a leg
Am        Dm                   Em
  No, I literally mean it this time around

    C           G          Am                             Dm              Em          G
I'm sick of you leading me on


                eb|-------------------------------------|-------------------------------------|
                Bb|----10--8/10-------10--8/10----------|----10--8/10-------10--8/10----------|
                Gb|-------------------------------------|-------------------------------------|
                Db|--------------5h7--------------------|--------------5h7--------------------|
                Ab|-----------------------------5h7p5---|-----------------------------5h7p5---|
                Eb|-------------------------------------|-------------------------------------|



                                    Am                    Dm               Em         G
I'm sick of you stringing me along, on



                eb|-------------------------------------|-------------------------------------|
                Bb|----10--8/10-------10--8/10----------|----10--8/10-------10--8/10----------|
                Gb|-------------------------------------|-------------------------------------|
                Db|--------------5h7--------------------|--------------5h7--------------------|
                Ab|-----------------------------5h7p5---|-----------------------------5h7p5---|
                Eb|-------------------------------------|-------------------------------------|



Am            Dm
  I do hereby swear
  Em     G       Am
a bounty on your heart
         Dm        Em   G
I hereby swear...





Vers:

Am
  Every poison kiss that you blew
    Em                        F                        Am
I deflected with an icy cold stare that I learned from you
Em               F
What's a boy to do?



Am                                        Em
  Where did you come from, where have you been?
  F                        Am
I don't know that much about you,
            Em                 F
but I don't think that I would like to anymore





Chorus:

Am              Dm                   Em
   The curtains rising just like the ante
        C       G
Here we go now, break a leg
Am        Dm                   Em
  No, I literally mean it this time around
    C           G          Am     F
I'm sick of you leading me on

    C           G          Am                             Dm              Em          G
I'm sick of you leading me on


                eb|-------------------------------------|-------------------------------------|
                Bb|----10--8/10-------10--8/10----------|----10--8/10-------10--8/10----------|
                Gb|-------------------------------------|-------------------------------------|
                Db|--------------5h7--------------------|--------------5h7--------------------|
                Ab|-----------------------------5h7p5---|-----------------------------5h7p5---|
                Eb|-------------------------------------|-------------------------------------|



                                    Am                    Dm               Em         G
I'm sick of you stringing me along, on



                eb|-------------------------------------|-------------------------------------|
                Bb|----10--8/10-------10--8/10----------|----10--8/10-------10--8/10----------|
                Gb|-------------------------------------|-------------------------------------|
                Db|--------------5h7--------------------|--------------5h7--------------------|
                Ab|-----------------------------5h7p5---|-----------------------------5h7p5---|
                Eb|-------------------------------------|-------------------------------------|




Am            Dm
  I do hereby swear
  Em     G       Am
a bounty on your heart
         Dm        Em   G
I hereby swear...


Git1:

                                            pm...........
eb|--------------------------------------------------------|
Bb|-----------------------------------------1--1--1--1--1--|
Gb|-----------------------------------------2--2--2--2--2--|
Db|--------------------------------5h7--7---2--2--2--2--2--|
Ab|-----------8--7-----5--7--5--7-----------0--0--0--0--0--|
Eb|--5----5---------8--------------------------------------|


Git2:

                                                pm...........
eb|------------------------------------------------------------|
Bb|----------------------------------8h10--10---1--1--1--1--1--|
Gb|-----------10--9------7--9--7--9-------------2--2--2--2--2--|
Db|-------7----------10-------------------------2--2--2--2--2--|
Ab|---------------------------------------------0--0--0--0--0--|
Eb|--5---------------------------------------------------------|




Outro:

                     Am
Oh-my-God, not even Hell
          Dm                   F
could be hotter than you right now
Em   G        Am           Dm                    F
    Not even Hell could be hotter than you right now
Em   G        Am           Dm                    F
Oh, not even Hell could be hotter than you right now




   Em   G        Am           Dm                    F
   Oh, not even Hell could be hotter than you right now


eb|-------------------------------------------------------|
Bb|--10--10--10--10--10----10---12--12--12--12--12----12--|
Gb|-------------------------------------------------------|
Db|--7---7---7---7---7-----7----9---9---9---9---9-----9---|
Ab|-------------------------------------------------------|
Eb|-------------------------------------------------------|


eb|-------------------------------------------------------|
Bb|--13--13--13--13--13----13----12---12--12--12--12--12--|
Gb|-------------------------------------------------------|
Db|--10--10--10--10--10----10----9----9---9---9---9---9---|
Ab|-------------------------------------------------------|
Eb|-------------------------------------------------------|



   Em   G        Am           Dm                    F
   Oh, not even Hell...


eb|-------------------------------------------------------|
Bb|--10--10--10--10--10----10---12--12--12--12--12----12--|
Gb|-------------------------------------------------------|
Db|--7---7---7---7---7-----7----9---9---9---9---9-----9---|
Ab|-------------------------------------------------------|
Eb|-------------------------------------------------------|


eb|---------------------------------------------------------------------|
Bb|--13--13--13--13--13----13----12---12--12--12--12--12----13--12--10--|
Gb|---------------------------------------------------------------------|
Db|--10--10--10--10--10----10----9----9---9---9---9---9-----10--9---7---|
Ab|---------------------------------------------------------------------|
Eb|---------------------------------------------------------------------|
Tap to rate this tab
# A B C D E F G H I J K L M N O P Q R S T U V W X Y Z