Song name
# A B C D E F G H I J K L M N O P Q R S T U V W X Y Z

Spill Canvas - Lullaby tab

-------------------------------------------------------------------------------
                             Lullaby - Spill Canvas
-------------------------------------------------------------------------------
Tabbed by:kris bauer
the other tabs were great but the chorus and bridge seemed all wrong
heres a more complete tab i think its pretty accurate :)

Tuning: drop d flat (db ab db gb bb eb) with a capo on the 3rd fret.

As other tabbers have mentioned, if you just want to stay in drop d
just put a capo on the 2nd instead 
however spill canvas play it in drop d flat

chords:
dadgbe

00420x  (E)
2240xx  (F#minor)
55403x  (A)
775xxx  (B7)
740xxx  (B)
02442x  (c#minor)
x0222x  (Bsus)

Intro/interlude:
   E                            f#m                A          B7    B
e|---------------------------------------------------------------------------|
B|-0-00-0-00-0-00------------------------------------------------------------|
G|-2-22-2-22-2-22------------------------------------------------------------|
D|-4-44-4-44-4-44-2h4p2h4p2h4---44-4-44-4-44-4-44--44-4--44---5-5-0-0--------|
A|-0-00-0-00-0-00---------------22-2-22-2-22-2-22--55-5--55---7-7-0-4--------|
D|-0-00-0-00-0-00---------------22-2-22-2-22-2-22--55-5--55---7-7-7-7--------|
   v ^^ v ^^ v ^^               ^v v ^^ v ^^ v ^^  ^v v  ^^   ^ v v v                      

   E
e|---------------------------------------------------------------------------|
B|-0-00-0-00-0-00------------------------------------------------------------|
G|-2-22-2-22-2-22------------------------------------------------------------|
D|-4-44-4-44-4-44------------------------------------------------------------|
A|-0-00-0-00-0-00------------------------------------------------------------|
D|-0-00-0-00-0-00--0-2-4-0---------------------------------------------------|


Verse:
   E                 f#m                A          B7    B
e|---------------------------------------------------------------------------|
B|-0-00-0-00-0-00------------------------------------------------------------|
G|-2-22-2-22-2-22------------------------------------------------------------|
D|-4-44-4-44-4-44----44-4-44-4-44-4-44--44-4--44---5-5-0-0-------------------|
A|-0-00-0-00-0-00----22-2-22-2-22-2-22--55-5--55---7-7-0-4-------------------|
D|-0-00-0-00-0-00----22-2-22-2-22-2-22--55-5--55---7-7-7-7-------------------|

   E
e|---------------------------------------------------------------------------|
B|-0-00-0-00-0-00------------------------------------------------------------|
G|-2-22-2-22-2-22------------------------------------------------------------|
D|-4-44-4-44-4-44------------------------------------------------------------|
A|-0-00-0-00-0-00------------------------------------------------------------|
D|-0-00-0-00-0-00--0-2-4-0---------------------------------------------------|


   E                 f#m                A          B7    B
e|---------------------------------------------------------------------------|
B|-0-00-0-00-0-00------------------------------------------------------------|
G|-2-22-2-22-2-22------------------------------------------------------------|
D|-4-44-4-44-4-44----44-4-44-4-44-4-44--44-4--44---5-5-0-0--- ---------------|
A|-0-00-0-00-0-00----22-2-22-2-22-2-22--55-5--55---7-7-0-4-------------------|
D|-0-00-0-00-0-00----22-2-22-2-22-2-22--55-5--55---7-7-7-7-------------------|

   E
e|---------------------------------------------------------------------------|
B|-0-00-0-00-0-00-0-00-------------------------------------------------------|
G|-2-22-2-22-2-22-2-22-------------------------------------------------------|
D|-4-44-4-44-4-44-4-44-------------------------------------------------------|
A|-0-00-0-00-0-00-0-00-------------------------------------------------------|
D|-0-00-0-00-0-00-0-00-------------------------------------------------------|

Chorus:
   C#m       A           F#m         A
e|----------------------------------------------------|
B|-22-2-22---3-33-3-33--------------------------------|
G|-44-4-44---0-00-0-00---0-00-0-00--------------------|
D|-44-4-44---4-44-4-44---4-44-4-44---4-44-4-44--------|
A|-22-2-22---5-55-5-55---2-22-2-22---5-55-5-55--------|
D|-00-0-00---5-55-5-55---2-22-2-22---5-55-5-55--------|

  C#m        A           F#m         A         B7     B
e|--------------------------------------------------------|
B|-22-2-22---3-33-3-33------------------------------------|
G|-44-4-44---0-00-0-00---0-00-0-00------------------------|
D|-44-4-44---4-44-4-44---4-44-4-44---4-44-4-44--5-5-0-0---|
A|-22-2-22---5-55-5-55---2-22-2-22---5-55-5-55--7-7-0-4---|
D|-00-0-00---5-55-5-55---2-22-2-22---5-55-5-55--7-7-7-7---|

Intro/interlude:
   E                            f#m                A          B7    B
e|---------------------------------------------------------------------------|
B|-0-00-0-00-0-00------------------------------------------------------------|
G|-2-22-2-22-2-22------------------------------------------------------------|
D|-4-44-4-44-4-44-2h4p2h4p2h4---44-4-44-4-44-4-44--44-4--44---5-5-0-0--------|
A|-0-00-0-00-0-00---------------22-2-22-2-22-2-22--55-5--55---7-7-0-4--------|
D|-0-00-0-00-0-00---------------22-2-22-2-22-2-22--55-5--55---7-7-7-7--------|
   v ^^ v ^^ v ^^               ^v v ^^ v ^^ v ^^  ^v v  ^^   ^ v v v                      

   E
e|---------------------------------------------------------------------------|
B|-0-00-0-00-0-00------------------------------------------------------------|
G|-2-22-2-22-2-22------------------------------------------------------------|
D|-4-44-4-44-4-44------------------------------------------------------------|
A|-0-00-0-00-0-00------------------------------------------------------------|
D|-0-00-0-00-0-00--0-2-4-0---------------------------------------------------|

lead fill 1:
(played during interlude)

e|-----------------------------------------------|
B|-17--16--14--12\9-----17--16--14--12\3---------|
G|-----------------------------------------------|
D|-----------------------------------------------|
A|-----------------------------------------------|
D|-----------------------------------------------|
(played using volume swells)

fill 2:
(played during verse2) 
(starting at ...its your fingers..)

B|-3h5p3h5p3h5p3h5------| (repeat till chorus 2)


Bridge:
   E        C#m         A           F#m        Bsus     
e|---------------------------------------------------------------------------|
B|-0000-----2-22-2-22--------------------------------------------------------|
G|-2222-----4-44-4-44---------------0-00-0-00--2-22-2-4----------------------|
D|-4444-----4-44-4-44---4-44-4-44---4-44-4-44--2-22-2-4----------------------|
A|-0000-----2-22-2-22---5-55-5-55---2-22-2-22--2-22-2------------------------|
D|-0000-----0-00-0-00---5-55-5-55---2-22-2-22--------------------------------|

e|---------------------------------------------------------------------------|
B|-0000-----2-22-2-22--------------------------------------------------------|
G|-2222-----4-44-4-44---------------0-00-0-00--2-22-2-4----------------------|
D|-4444-----4-44-4-44---4-44-4-44---4-44-4-44--2-22-2-4----------------------|
A|-0000-----2-22-2-22---5-55-5-55---2-22-2-22--2-22-2------------------------|
D|-0000-----0-00-0-00---5-55-5-55---2-22-2-22--------------------------------|

Ending chorus :
e|----------------------------------------------------|
B|-22-2-22---3-33-3-33--------------------------------|
G|-44-4-44---0-00-0-00---0-00-0-00--------------------|
D|-44-4-44---4-44-4-44---4-44-4-44---4-44-4-44--------|
A|-22-2-22---5-55-5-55---2-22-2-22---5-55-5-55--------|
D|-00-0-00---5-55-5-55---2-22-2-22---5-55-5-55--------|

   C#m       A           F#m         A            E
e|---------------------------------------------------|
B|-22-2-22---3-33-3-33----------------------------0--|
G|-44-4-44---0-00-0-00---0-00-0-00----------------2--|
D|-44-4-44---4-44-4-44---4-44-4-44---4-44----5-5--4--|
A|-22-2-22---5-55-5-55---2-22-2-22---5-55----7-7--0--|
D|-00-0-00---5-55-5-55---2-22-2-22---5-55----7-7--0--|





order:

Intro/Interlude
Verse
Chorus
Intro/Interlude  + fill1
Verse  + fill 2
Chorus
Bridge
Chorus
Ending Chorus

Enjoy :)
************************************
|v   Upstroke
|^  Downstroke
| /   slide up
| \   slide down
| h   hammer-on
| p   pull-off
| ~   vibrato
| +   harmonic
| x   Mute note
| b   Bend
| pb  Pre-bend
| br  Bend release
| pbr Pre-bend release
| brb Bend release bend

************************************
Tap to rate this tab
 
# A B C D E F G H I J K L M N O P Q R S T U V W X Y Z