Song name
# A B C D E F G H I J K L M N O P Q R S T U V W X Y Z

Spill Canvas - Night Will Go As Follows tab

This tab is not 100% accurate.

It is tabbed out to play on 1 single guitar. It still sounds good and it gives it a nice 
to the original. This is what I use to cover the song. If you don't like it, shut up. I 
you it isn't perfect.

[For the >'s just make your own strumming pattern according to how you like to play, but 
to the songs rhythm too.]

Capo first fret

OR alternatively

Tune 1/2 a step UP

Intro:
e|0-2--0-2--22-------------------|
B|0-0--0-0--00--4-5-4-2--4-2-----|
G|1-1--1-1--11--2-2-2-2--2-2--1h2| X2
D|2-2--2-2--22--2-2-2-2--2-2-----|
A|2-2--2-2--22--0-0-0-0--0-0-----|
E|0-0--0-0--00-------------------|

e|0-2--0-2--22---------------------|
B|0-0--0-0--00---------------------|
G|1-1--1-1--11--1h2-1---4-2--2--1h2|
D|2-2--2-2--22--2---2-2-2-2--2-----|
A|2-2--2-2--22--0---0-0-0-0--0-----|
E|0-0--0-0--00---------------------|

e|0-2--0-2--22-----------------xx|
B|0-0--0-0--00--4-5-4-2--4-2---xx|
G|1-1--1-1--11--2-2-2-2--2-2---xx|
D|2-2--2-2--22--2-2-2-2--2-2---xx|
A|2-2--2-2--22--0-0-0-0--0-0---xx|
E|0-0--0-0--00-----------------xx|


Verse
e|0-2--0-2--22-----------------xx|
B|0-0--0-0--00--4-5-4-2--4-2---xx|
G|1-1--1-1--11--2-2-2-2--2-2---xx|  X4
D|2-2--2-2--22--2-2-2-2--2-2---xx|
A|2-2--2-2--22--0-0-0-0--0-0---xx|
E|0-0--0-0--00-----------------xx|
      (In a romantic fashion....)

Pre Chorus:
e|--------------00000-xxxx-0-x-0>-0>-0>-0>-|
B|--------------00000-xxxx-0-x-0>-0>-0>-0>-|
G|--------------66666-xxxx-9-x-4>-2>-2>-4>-|
D|--------------66666-xxxx-9-x-4>-2>-2>-4>-|
A|--------------44444-xxxx-7-x-2>-0>-0>-2>-|
E|--------------------xxxx---x-------------|
  (And then I'll say...)

Chorus:

     Eadd9 >                              Asus2 >
 The August sky will then bare witness, to a brand new chapter with torn up pages,

 Bsus4 >                     Asus2 >
When the planets align, I can feel the gates, opening to my,

 Eadd9 >              Asus2 >
     Courage, As I, Proceed to run my fingers through her hair,

   Bsus4 >                      Asus2 >                              Asus2 >
And forget everyone who's jaded, 'Cause they don't matter and I don't care.


Break:
e|----0-2--0-2--22-------------------|
B|----0-0--0-0--00--4-5-4-2--4-2-----|
G|1-2-1-1--1-1--11--2-2-2-2--2-2--1h2| X2
D|----2-2--2-2--22--2-2-2-2--2-2-----|
A|----2-2--2-2--22--0-0-0-0--0-0-----|
E|----0-0--0-0--00-------------------|

e|0-2--0-2--22---------------------|
B|0-0--0-0--00---------------------|
G|1-1--1-1--11--1h2-1---4-2--2--1h2|
D|2-2--2-2--22--2---2-2-2-2--2-----|
A|2-2--2-2--22--0---0-0-0-0--0-----|
E|0-0--0-0--00---------------------|

e|0-2--0-2--22-----------------xx|
B|0-0--0-0--00--4-5-4-2--4-2---xx|
G|1-1--1-1--11--2-2-2-2--2-2---xx|
D|2-2--2-2--22--2-2-2-2--2-2---xx|
A|2-2--2-2--22--0-0-0-0--0-0---xx|
E|0-0--0-0--00-----------------xx|

Verse 2:
e|0-2--0-2--22-----------------xx|
B|0-0--0-0--00--4-5-4-2--4-2---xx|
G|1-1--1-1--11--2-2-2-2--2-2---xx|  X4
D|2-2--2-2--22--2-2-2-2--2-2---xx|
A|2-2--2-2--22--0-0-0-0--0-0---xx|
E|0-0--0-0--00-----------------xx|
      (In a confident fashion....)

Pre Chorus:
e|--------------00000-xxxx-0-x-0>-0>-0>-0>-|
B|--------------00000-xxxx-0-x-0>-0>-0>-0>-|
G|--------------66666-xxxx-9-x-4>-2>-2>-4>-|
D|--------------66666-xxxx-9-x-4>-2>-2>-4>-|
A|--------------44444-xxxx-7-x-2>-0>-0>-2>-|
E|--------------------xxxx---x-------------|
  (And then I'll say...)

Chorus:

     Eadd9 >                              Asus2 >
 The August sky will then bare witness, to a brand new chapter with torn up pages,

 Bsus4 >                     Asus2 >
When the planets align, I can feel the gates, opening to my,

 Eadd9 >              Asus2 >
     Courage, As I, Proceed to run my fingers through her hair,

   Bsus4 >                      Asus2 >
And forget everyone who's jaded, 'Cause they don't matter and I don't care.

Asus2 >
No, 'Cause they don't matter and I don't care,


Bridge:
e|00000------------------0|
B|00000---------------0--0|
G|66666----9----4----2-2-2| x4
D|66666---9-9--4-4--2----2|
A|44444--7----2----0-----0|
E|------------------------|
       (Brash and hopeful...)

Bridge Pt.2:
e|00000000-00000000-0000-00|
B|00000000-00000000-0000-00|
G|66666666-99999999-2222-22|
D|66666666-99999999-2222-22|  x4
A|44444444-77777777-0000-00|
E|-------------------------|
          (Brash and Hopeful...)

Bridge Pt.3:
e|00000000-00000000-0>|
B|00000000-00000000-0>|
G|66666666-99999999-2>|
D|66666666-99999999-2>|  x4
A|44444444-77777777-0>|
E|--------------------|
          (Brash and Hopeful...)


Changed lyrics Chorus:

    Eadd9 >                           Asus2 >
Consider this song a testament, Of my devotion to your saccharine scent,

      Bsus4 >                 Asus2 >
And to be completely honest, You're not like all the rest,

    Eadd9 >                           Asus2 >
Consider this song a testament, Of my devotion to your saccharine scent,

      Bsus4 >                 Asus2 >
And to be completely honest, You're not like all the rest,

Asus2 >
Oh no, You're not like all the rest,

Asus2 >
You're not like all the rest,


End on Eadd9:

e|2~~~~|
B|0~~~~|
G|1~~~~|
D|2~~~~|
A|2~~~~|
E|0~~~~|

Just to clear up confusion, chords for the chorus are as follows:

Eadd9:  Asus2:  Bsus4:
e|2-------0-------0---|
B|0-------0-------0---|
G|1-------2-------4---|
D|2-------2-------4---|
A|2-------0-------2---|
E|0-------------------|

All frets relative to capo.


This is the first tab I've ever submitted, please comment and rate it and tell me what 
think.

Cheers.
Tap to rate this tab
 
# A B C D E F G H I J K L M N O P Q R S T U V W X Y Z