Guitaretab - guitar tabs
Song name
# A B C D E F G H I J K L M N O P Q R S T U V W X Y Z

Spill Canvas - Caterpillars tab

Intro:
Guitar 1
E----7------------------------------------------------------|
B----------9~--7~-----7/9/7------9---5~---7/9/7-------------|
G--6---6---6~--4~---4----------6---x-6~--------8------------|
D-----------------------------------------------9~----------|
A-----------------------------------------------------------|
E-----------------------------------------------------------|

Pre-Verse:
Guitar 2 Chords    End on        Guitar 1            
E---4~----------   ---0~---      ---0~--0~----
B---5~----------   ---5~---      ----4~--4~---
G---6~---4/6\4~-   ---4~---      -----4~--4~-- 
D---6~---4/6\4~-x4 ---2~---      -------------x4
A---4~---2/4\2~-   ---0~---      -------------
E---x-----------   ---x----      -------------
[ Tab from: http://www.guitaretab.com/s/spill-canvas/56501.html ]
Verse 1:                              Next Chords  
E--0-0-   --------------------0~-0-   ---0----------------0-0--|   
B--5-5-   --------------------5~-5-   ---5----------------5-5--|
G--6-6-   --4~--4~-4--2~------6~-6-   ---6--4-4-4-------6-6--|
D--6-6-   --4~--2~-2--2~------6~-6-x2 ---6-4-2-2-------6-6-|x2   
A--4-4-   --2~--0~-0--4~--0-2-4~-4-   ---4-2-0-2---0/2\4-4--|  
E--X-X-   ---------------4----XX-   ---X-----------4---------|  

Chorus:                 After Chorus chords       Play during Solo
E---X----------------   -----0------------------- ---------------|
B---X----------------   -----5------------------- -5-------------| 
G---9~--9~----9~--4~-   -4---6---4---4---4---4--- -6---4---4---4-|
D---9~--9~----7~--2~-x4 -4---6---2---4---2---4--- -6---4---2---4-|x6
A---7~--6~--7/9~--0~-   -2---4---0---2---0---2--- -4---2---0---2-|
E---0~---------------   ------------------------- ---------------|

Solo:          
E-4---------   --4----------|
B---4/5---7--   ----7-5/4\2--| 
G-4-----4----   -4---------4-|
D------------x7 -------------| 
A------------   -------------| 
E------------   -------------|

Ending
E---0~----------------------0~---------------------0~-----------|
B---5~----------------------5~---------------------5~-----------|
G---6~---4~----4~---4~------6~---4~---4~---4~------6~---4~---4~-|
D---6~---4~----2~---4~------6~---4~---2~---4~------6~---4~---2~-|
A---4~---2~----0~---2~-0/2--4~---2~---0~---2~-0/2--4~---2~---0~-|
E---------------------4----------------------4------------------|
Related for Caterpillars tab