Guitaretab - guitar tabs
Song name
# A B C D E F G H I J K L M N O P Q R S T U V W X Y Z

Spill Canvas - Dutch Courage tab

-------------------------------------------------------------------------------
                                     DUTCH COURAGE - The Spill Canvas 
-------------------------------------------------------------------------------
Tabbed by: Isis
Email:ice_wolf_1@hotmail.com
This is the guitar tab for both guitars for the whole song. 

This song is fucking amazing.  This tab is for KT.
ENJOY!!!!!
Tuning: Down a Semitone

Verse 1:
e|-------------------------------------------------------------------------|
B|---0-------0-------------------0--------0-----------------0------0-------|
G|---------0------0------X2------------0-------0---X2-----------0-------0--| X2
D|------2-------2-------------------4-------4----------------2-------2-----|
A|-3---------------------------2--------------------------3----------------|
E|-------------------------------------------------------------------------|

e|-------------------------|
B|---0-----0---------------|
G|-------0-----0----X2-----|
D|-----4-----4-------------|     X2
A|-5-----------------------|
E|-------------------------|

There are two guitars playing in the pre-chorus (after "and then you're gone in a flash")
Guitar 1:
e|--------------------------------------------------------0-|
B|----3-----3-----------3-----3----------0------0---------0-|
G|--------0-----0-----------0-----0-----------0------0--- 0-|
D|------2-----2-----------0-----0----------2------2------ 2-|
A|-0-----------------2-----------------3------------------3-|
E|----------------------------------------------------------|
Guitar 2:
e|------7------7------7------5-------------|
B|----8------8------5----5---7-------------|
G|--9------7------5----------5-------------|
D|-----------------------------------------|
A|-----------------------------------------|
E|-----------------------------------------|

CHORUS

Guitar 1: Listen to the track to get the strumming
e|-----0---------0-------0----------------------------------------------|
B|-----0---------0-------0---------0------------------------------------|
G|-----0---------0-------0---------2-----------X4-----------------------|
D|-----2---------2-------4---------0------------------------------------|
A|-----2-----3---3----5--5---------0------------------------------------|
E|--0--0-----------------------2---2------------------------------------|
[ Tab from: http://www.guitaretab.com/s/spill-canvas/61847.html ]
Guitar 2:
e|------------------------------------------------|
B|------------------------------------------------|
G|--7/9-9-7--------7------------------------------|
D|----------9--7h9---7-5-7-5----------------------|
A|---------------------------5/7--5/7/9---9/10\9--|
E|------------------------------------------------|
                                                   X2
e|------------------------------------------------|
B|------------------------------------------------|
G|--7/9-9-7--------7------------------------------|
D|----------9--7h9---7-5-7-5----------------------|  
A|---------------------------5/7--5/7\5-----------|
E|------------------------------------------------|
Verse 2:
Guitar 1: SAME AS VERSE 1

Guitar 2:
e|-------------------------------------------------------------------------|
B|-------------------------------------------------------------------------|
G|-------------------------------------------------------------------------|
D|--------------------------------------------------12---------------------|
A|--10-10-10-9--7/9-7/9/10--7-----10-10-10/12--12----12--10/12--10-12-7----|
E|-------------------------------------------------------------------------|

CHORUS

Bridge
Guitar 1:
e|---------------------------------------------|
B|---------------------------------------------|
G|---------------------------------------------|
D|--2--------4-------2------2------------------|  
A|--2--------5-------3------3------------------|
E|--0------------------------------------------|
                                                X2
Guitar 2:
e|--7-------7--------7------7------------------|
B|--8-------8--------5------7------------------|
G|--9-------7--------5------5------------------|
D|---------------------------------------------|
A|---------------------------------------------|
E|---------------------------------------------|
Then:
"At least Im not a liar, At least I'm not cheat... etc"
Guitar 1: Listen to get the strumming
e|--------------------------------------------------------------------|
B|--------------------------------------------------------------------|
G|--------------------------------------------------------------------|
D|--2--------4-------2------2-----------------------------------------|  
A|--2--------5-------3------3-----------------------------------------|
E|--0-----------------------------------------------------------------|
                                                                         X2
Guitar 2:-
e|-------7---------------7---------------7--------------7-------------|
B|----8-----8--8------8------8--8------5-----5--5-----7-----7--7------|
G|--9--9-----9-----7--7------7-----5--5-----5-----5--5-----5----------|
D|--------------------------------------------------------------------|
A|--------------------------------------------------------------------|
E|--------------------------------------------------------------------|

Then:-
Guitar 2:                              Guitar 1:         Guitar 2:

e|------12---------|        e|-2----|        e|----------10------------|
B|------12---------|        B|-0----|        B|---10/12-----12/10---8--|
G|------12---------|        G|-2----|        G|------------------------|
D|------12---------|        D|-1----|        D|------------------------|
A|------12---------|        A|-2----|        A|------------------------|
E|--0--------------|        E|-0----|        E|------------------------|
          (Harmonics)

CHORUS x 2

Hope I got all that right if not then email me with sorrections or comments




| /  slide up
| \  slide down
| h  hammer-on
| p  pull-off
| ~  vibrato
| +  harmonic
| x  Mute note
===============================================================================
Related for Dutch Courage tab
×
Dutch Courage