Song name
# A B C D E F G H I J K L M N O P Q R S T U V W X Y Z

Spill Canvas - Under The Covers tab

_____________________________________________________________________________
                          
                         The Spill Canvas - Under the Covers
_____________________________________________________________________________

Capo on 2

Intro
e|--------------------------------------------------------------------------|
B|--------------------------------------------------------------------------|
G|-0-0-0-0----0h2---0-0-0-0----0h2-0--2-2-2-2-2-2-2-2-2-2-2x----------------|
D|-2-2-2-2-0h2------2-2-2-2-0h2-------2-2-2-2-2-2-2-2-2-2-2x----------------|
A|-3-3-3-3----------3-3-3-3-----------0-0-0-0-0-0-0-0-0-0-0x----------------|
E|-0-0-0-0----------0-0-0-0-----------0-0-0-0-0-0-0-0-0-0-0x----------------|
   ^ Upstroke                                                   

e|-------------------------------------------3-------------3-----------|
B|-----------------------------------------1---1---------1---1---------|
G|-0-0-0-0----0h2-0-2--0-0-0-----0h2-0--0---------0-0-0--------0-0-----|
D|-2-2-2-2-0h2---------2-2-2--0h2-------2---------2-2-2--------2-2-----|
A|-3-3-3-3-------------3-3-3------------2---------2-2-2--------2-2-----|
E|-0-0-0-0-------------0-0-0------------0---------0-0-0--------0-0-----|
   ^

and I'm bottling up your soft...(just do the intro x4)


Little bridge thing
e|----------------------------|
B|----------------------------|
G|----------------------------|
D|---5-5-5-5/3-3-3x3-3-3------|
A|---5-5-5-5/3-3-3x3-3-3------|
E|---3-3-3-3/1-1-1x1-1-1------|

To give me confidence to stare..

e|------------------------------|
B|------------------------------|
G|------------------------------|
D|--7-7/5-5-5/3-3-3x3-3-3-------|
A|--7-7/5-5-5/3-3-3x3-3-3-------|   
E|--5-5/3-3-3/1-1-1x1-1-1-------|  
                                    
And obvserve the world                        
                                       
e|-----------------------------|     
B|-----------------------------|    
G|-----------------------------|   
D|---5-5-5-5/3-3-3x3-3-3-------|  
A|---5-5-5-5/3-3-3x3-3-3-------| 
E|---3-3-3-3/1-1-1x1-1-1-------|

To give me confidence to stare..

e|---------------------------------|
B|---------------------------------|
G|---------------------------------|
D|--7-7/5-5-5/3-3-3x3-3-3-3x3-3-3--|
A|--7-7/5-5-5/3-3-3x3-3-3-3x3-3-3--|   
E|--5-5/3-3-3/1-1-1x1-1-1-1x1-1-1--| play around with that


e|---------------------------------------|
B|---------------------------------------|
G|--0-0-0-0-0-0-0-0-0-0-0-0-0-0-0-0-0-0--|
D|--2-2-2-2-2-2-2-2-2-2-2-2-2-2-2-2-2-2--| listen to the song
A|--3-3-3-3-3-3-3-3-3-3-3-3-3-3-3-3-3-3--| to get the pattern  
E|--0-0-0-0-0-0-0-0-0-0-0-0-0-0-0-0-0-0--| of upstrokes
    ^         ^         ^       ^  

if i could sleep forever..                  repeat it but
                                            play  
e|-------------------------------------|   -----------3~----|
B|-------------------------------2h4---|   --------0h2------|
G|----------------------------0h2------|   -----0h2---------|
D|--7-7/5-5-5/3-3-3x3-3-3--0h2---------|   --0h2------------|x2
A|--7-7/5-5-5/3-3-3x3-3-3--------------|   -----------------|
E|--5-5/3-3-3/1-1-1x1-1-1--------------|   -----------------|

e|------------------------------|
B|------------------------------|
G|------------------------------|
D|--7-7/5-5-5/3-3-3x3-3-3-------|x3
A|--7-7/5-5-5/3-3-3x3-3-3-------|   
E|--5-5/3-3-3/1-1-1x1-1-1-------| 

Under The Covers

e|--0---3---0---7~(this is in the background)
B|------------------------------|
G|------------------------------|
D|--7-7/5-5-5/3-3-3x3-3-3-------|x3
A|--7-7/5-5-5/3-3-3x3-3-3-------|   
E|--5-5/3-3-3/1-1-1x1-1-1-------| 

The Outro

e|---0--3--0--7----x----------|
B|-----------------x----------|let it ring while you
G|-----------------x-0~-------|do the 0 3 0 7 business
D|-----------------x-2~-------|
A|-----------------x-3~-------|   
E|-----------------x-0~-------| 

that's it! hope it helped you
facundo mundo!
Tap to rate this tab
# A B C D E F G H I J K L M N O P Q R S T U V W X Y Z