Song name
# A B C D E F G H I J K L M N O P Q R S T U V W X Y Z

Spill Canvas - Aim Snap Fall tab

K this is a hard song to learn by ear
but
i'm pretty sure this is right
i don't have my capo
so just make these notes 2 steps higher w/ capo
(make an 8 a 10...)


Drop D
Capo on second fret
Figure out strumming yourself


Verse pt 1 (Aim, Snap, Fall...)

e |---------------------------------------------------------------------|
B |---------------------------------------------------------------------|
G |-------0-------------0-------------0-------------0-------------------|
D |---7-----7---7---5-----5---5---3-----3---3---3-----3---3-------------|
A |-8---8-----8---7---7-----7-------------------------------------------|
E |-----------------------------0---0-----0---0---0-----0---------------|

Verse pt 2 (The bitter wind...)

e |---------------------------------------------------------------------|
B |---------------------------------------------------------------------|
G |-------0-------------0-------------0---------------------------------|
D |---3-----3---3---2-----2---2---3-----3---3---------------------------|
A |-1---1-----1---3---3-----3-------------------------------------------|
E |-----------------------------0---0-----0-----------------------------|

Verse pt 3 (a small part of "trees so tall")

e |---------------------------------------------------------------------|
B |---------------------------------------------------------------------|
G |-------0-------------0-------------0-------------0-------------------|
D |---3-----3---3---3-----3---3---2-----2---2---2-----2---2-------------|
A |-1---1-----1---1---1-----1---3---3-----3---3---3-----3---------------|
E |---------------------------------------------------------------------|

Verse pt 1 (Colours and fading sights)

e |---------------------------------------------------------------------|
B |-----------------------------------1---------------------------------|
G |-------0-------------0---------------0-----------0-------------------|
D |---7-----7---7---5-----5---5---3---------3---3-----3---3-------------|
A |-8---8-----8---7---7-----7-------------------------------------------|
E |-----------------------------0---0-----0---0---0-----0---------------|

Verse pt 2 (I think i've found...)

e |---------------------------------------------------------------------|
B |---------------------------------------------------------------------|
G |-------0-------------0-------------0---------------------------------|
D |---3-----3---3---2-----2---2---3-----3---3---------------------------|
A |-1---1-----1---3---3-----3-------------------------------------------|
E |-----------------------------0---0-----0-----------------------------|

Verse pt 3 (a small part of "addiction tonight")

e |---------------------------------------------------------------------|
B |---------------------------------------------------------------------|
G |-------0-------------0-------------0-------------0-------------------|
D |---3-----3---3---3-----3---3---2-----2---2---2-----2---2-------------|
A |-1---1-----1---1---1-----1---3---3-----3---3---3-----3---------------|
E |---------------------------------------------------------------------|


Verse pt 1 (The phone call...)

e |---------------------------------------------------------------------|
B |---------------------------------------------------------------------|
G |-------0-------------0-------------0-------------0-------------------|
D |---7-----7---7---5-----5---5---3-----3---3---3-----3---3-------------|
A |-8---8-----8---7---7-----7-------------------------------------------|
E |-----------------------------0---0-----0---0---0-----0---------------|

Verse pt 2 (left me paralized)

e |---------------------------------------------------------------------|
B |---------------------------------------------------------------------|
G |-------0-------------0-------------0---------------------------------|
D |---3-----3---3---2-----2---2---3-----3---3---------------------------|
A |-1---1-----1---3---3-----3-------------------------------------------|
E |-----------------------------0---0-----0-----------------------------|

Verse pt 3 (a small part of "pureness of it all")

e |---------------------------------------------------------------------|
B |---------------------------------------------------------------------|
G |-------0-------------0-------------0-------------0-------------------|
D |---3-----3---3---3-----3---3---2-----2---2---2-----2---2-------------|
A |-1---1-----1---1---1-----1---3---3-----3---3---3-----3---------------|
E |---------------------------------------------------------------------|

Bridge 1 (and then your siren...)

e |---------------------------------------------------------------------|
B |---------------------------------------------------------------------|
G |-0---0---0---0---0---0---0---0---------------------------------------|
D |-3---3---3---3---3---3---3---3---------------------------------------|
A |-5---5---1---1---5---5---1---1---------------------------------------|
E |-0---0-----------0---0-----------------------------------------------|

Bridge 2 (I think i've found my other half...) X 2

e |---------------------------------------------------------------------|
B |---------------------------------------------------------------------|
G |-0---0-0-0-0-------------0-------------------------------------------|
D |-3---3-2-3---3---3---3-----3---3-------------------------------------|
A |-5---5-3-1-----1---1---1-----1---------------------------------------|
E |-0---0-0-------------------------------------------------------------|

Bridge ending

e |---------------------------------------------------------------------|
B |---------------------------------------------------------------------|
G |---------------------------------------------------------------------|
D |-------0-------------0-----------------------------------------------|
A |---2-----2---2---2-----2---2-----------------------------------------|
E |-3---3-----3---3---3-----3-------------------------------------------|

Ending (I think i've found my other half / aim snap fall)
Same as verse basically
X 2


e |---------------------------------------------------------------------|
B |---------------------------------------------------------------------|
G |-------0-------------0-------------0-------------0-------------------|
D |---7-----7---7---5-----5---5---3-----3---3---3-----3---3-------------|
A |-8---8-----8---7---7-----7-------------------------------------------|
E |-----------------------------0---0-----0---0---0-----0---------------|

e |---------------------------------------------------------------------|
B |---------------------------------------------------------------------|
G |-------0-------------0-------------0---------------------------------|
D |---3-----3---3---2-----2---2---3-----3---3---------------------------|
A |-1---1-----1---3---3-----3-------------------------------------------|
E |-----------------------------0---0-----0-----------------------------|

e |---------------------------------------------------------------------|
B |---------------------------------------------------------------------|
G |-------0-------------0-----------------------------------------------|
D |---3-----3---3---3-----3---3-----------------------------------------|
A |-1---1-----1---1---1-----1-------------------------------------------|
E |---------------------------------------------------------------------|

Last part (here we go)

e |---------------------------------------------------------------------|
B |---------------------------------------------------------------------|
G |-------0-------------0-------------0-------------0-------------------|
D |---3-----3---3---3-----3---3---2-----2---2---2-----2---2-------------|
A |-1---1-----1---1---1-----1---3---3-----3---3---3-----3---------------|
E |---------------------------------------------------------------------|

End on

e |---------------------------------------------------------------------|
B |---------------------------------------------------------------------|
G |-0-------------------------------------------------------------------|
D |-7-------------------------------------------------------------------|
A |-8-------------------------------------------------------------------|
E |---------------------------------------------------------------------|

And that's it
questions and/ or comments Chainsaw.Brutality@hotmail.com












Tap to rate this tab
 
# A B C D E F G H I J K L M N O P Q R S T U V W X Y Z