Song name
# A B C D E F G H I J K L M N O P Q R S T U V W X Y Z

Spill Canvas - Self Conclusion tab

intro:
e|----------------|----------------|----------------|----------------|
b|----------------|----------------|----------------|--------------33|
g|----------------|----------------|----------------|--------------33|
d|5-----1---0-----|----3-1---------|5-----1--0------|----3-1-------55|
a|5-----1---1-----|--3---1---------|5-----1--1------|--3---1-------55|
e|----------------|1---------------|----------------|1---------------|

e|----x-----------|----x-----------|----x-----------|----x-----------|
b|3--3x----33-3---|----x-----------|3--3x----33-3---|----x-----------|
g|3--3x-0--33-3---|2--2x-0--00-0---|3--3x-0--33-3---|2--2x-0--00-0---|
d|5--5x-1--33-3---|3--3x-1---1-1---|5--5x-1--33-3---|3--3x-1---1-1---|
a|5--5x-1--11-1---|3--3x-1---1-1---|5--5x-1--11-1---|3--3x-1---1-1---|
e|----x-----------|1--1x-----------|----x-----------|1--1x-----------|

 verse:
e|---x------------|    |---x------------|    |---x------------|
b|3-3x--3-----3---|    |---x------------|    |---x------------|
g|3-3x--3-----3---| x2 |0-0x--0-----0---| x2 |2-2x--2-----2---| x2
d|5-5x--5-----5---|    |1-1x--1-----1---|    |3-3x--3-----3---|
a|5-5x--5-----5---|    |1-1x--1-----1---|    |3-3x--3-----3---|
e|---x------------|    |---x------------|    |1-1x--1-----1---|

e|---x------------|
b|3-3x--3-----3---|
g|3-3x--3-----3---| x2
d|3-3x--3-----3---|
a|1-1x--1-----1---|
e|---x------------|

e|---x------------|    |---x------------|    |---x------------|
b|3-3x--3-----3---|    |---x------------|    |---x------------|
g|3-3x--3-----3---| x2 |0-0x--0-----0---| x2 |2-2x--2-----2---| x2
d|5-5x--5-----5---|    |1-1x--1-----1---|    |3-3x--3-----3---|
a|5-5x--5-----5---|    |1-1x--1-----1---|    |3-3x--3-----3---|
e|---x------------|    |---x------------|    |1-1x--1-----1---|

e|---x------------|
b|3-3x--3-----3---|
g|3-3x--3-----3---| x2
d|3-3x--3-----3---|
a|1-1x--1-----1---|
e|---x------------|

pre-corus:
e|----------x---x-|----------------|----------x---x-|----------------|
b|----------x---x-|----------------|----------x---x-|----------------|
g|--------0-x---x-|2-22-2--2222-2--|--------0-x---x-|2-22-2-2222-2---|
d|--------1-x-0-x-|3-33-3--3333-3--|--------1-x-0-x-|3-33-3-3333-3---|
a|--1-0---1-x-1-x-|3-33-3--3333-3--|--1-0---1-x-1-x-|3-33-3-3333-3---|
e|3-----1---x-1-x-|1-11-1--1111-1--|3-----1---x-1-x-|1-11-1-1111-1---|

e|------------x-x-|
b|------------x-x-|
g|0--0-0-00---x-x-|
d|1--1-1-11---x-x-|
a|1--1-1-11---x-x-|
e|------------x-x-|

corus:
e|----x-----------|----x-----------|----x-----------|----x-----------|
b|3--3x----33-3-33|----x-----------|3--3x----33-3-33|----x-----------|
g|3--3x00--33-3-33|2--2x00--00-0-00|3--3x00--33-3-33|2--2x00--00-0-00|
d|5--5x11--33-3-33|3--3x11--11-1-11|5--5x11--33-3-33|3--3x11--11-1-11|
a|5--5x11--11-1-11|3--3x11--11-1-11|5--5x11--11-1-11|3--3x11--11-1-11|
e|----x-----------|1--1x-----------|----x-----------|1--1x-----------|

e|----x-----------|----x-----------|----x-----------|----x-----------|
b|3--3x----33-3-33|----x-----------|3--3x----33-3-33|----x-----------|
g|3--3x00--33-3-33|2--2x00--00-0-00|3--3x00--33-3-33|2--2x00--00-0-00|
d|5--5x11--33-3-33|3--3x11--11-1-11|5--5x11--33-3-33|3--3x11--11-1-11|
a|5--5x11--11-1-11|3--3x11--11-1-11|5--5x11--11-1-11|3--3x11--11-1-11|
e|----x-----------|1--1x-----------|----x-----------|1--1x-----------|

after corus:
e|----x-----------|----------------|----x-----------|----------------|
b|3--3x-----------|----------------|3--3x-----------|----------------|
g|3--3x00---------|-----00--00--00-|3--3x00---------|-----00--00--00-|
d|5--5x11--00-----|---3-11--11--11-|5--5x11--00-----|---3-11--11--11-|
a|5--5x11--11-----|-03--11--11--11-|5--5x11--11-----|-03--11--11--11-|
e|----x-----------|1---------------|----x-----------|1---------------|

verse

precorus

corus

bridge:

e|----------x---x-|----------x---x-|----------x---x-|----------x---x-|
b|3-33-3-33-x-3-x-|4-44-4-44-x-4-x-|3-33-3-33-x-3-x-|----------x---x-|
g|3-33-3-33-x-3-x-|3-33-3-33-x-3-x-|3-33-3-33-x-3-x-|2-22-2-22-x-2-x-|
d|5-55-5-55-x-5-x-|5-55-5-55-x-5-x-|3-33-3-33-x-3-x-|3-33-3-33-x-3-x-|
a|5-55-5-55-x-5-x-|6-66-6-66-x-6-x-|1-11-1-11-x-1-x-|3-33-3-33-x-3-x-|
e|----------x---x-|----------x---x-|----------x---x-|1-11-1-11-x-1-x-|

e|----------x---x-|----------x---x-|----------x---x-|----------x---x-|
b|3-33-3-33-x-3-x-|4-44-4-44-x-4-x-|3-33-3-33-x-3-x-|----------x---x-|
g|3-33-3-33-x-3-x-|3-33-3-33-x-3-x-|3-33-3-33-x-3-x-|0-00-0-00-x-0-x-|
d|5-55-5-55-x-5-x-|5-55-5-55-x-5-x-|3-33-3-33-x-3-x-|1-11-1-11-x-1-x-|
a|5-55-5-55-x-5-x-|6-66-6-66-x-6-x-|1-11-1-11-x-1-x-|1-11-1-11-x-1-x-|
e|----------x---x-|----------x---x-|----------x---x-|----------x---x-|

e|--x-----| 
b|--x-----| 
g|0-x-0---| 
d|1-x-1---| 
a|1-x-1---| 
e|--x-----| 

|----------------|----------------|----------------|----------------|
|----------------|----------------|----------------|----------------|
|----------------|----------------|----------------|----------------|
|--------1-------|----------------|--------1-------|----------------|
|--1-0---1---1-3-|-0-1-0---0-1-0--|--1-0---1---1-3-|-0-1-0---0-1-0--|
|3-----1-----1-1-|1-1----11-1----1|3-----1-----1-1-|1-1----11-1----1|

|----------------|----------------|----------------|----------------|
|----------------|----------------|----------------|----------------|
|----------------|----------------|----------------|2222-2-22222-2-2|
|--------1-------|----------------|---------1-1----|3333-3-33333-3-3|
|--1-0---1---1---|-0-1-0---0-1-0--|--1-0----1-1-1-1|3333-3-33333-3-3|
|3-----1-----1---|1-1----11-1----1|3-----1------1-1|1111-1-11111-1-1|

|----------------|----------------|----------------|----------------|
|----------------|----------------|----------------|----------------|
|--------0000----|----------------|--------0000----|2222-2-22222-2-2|
|--------11110000|----------------|--------11110000|3333-3-33333-3-3|
|--1-0---11111111|-0-1-0---0-1-0--|--1-0---11111111|3333-3-33333-3-3|
|3-----1-----1111|1-1----11-1----1|3-----1-----1111|1111-1-11111-1-1|

|----------------|----------------|----------------|----------------|
|----------------|----------------|----------------|----------------|
|--------0000----|2222-2-22222-2-2|--------0000----|2222-2-22222-2-2|
|--------11110000|3333-3-33333-3-3|--------11110000|3333-3-33333-3-3|
|--1-0---11111111|3333-3-33333-3-3|--1-0---11111111|3333-3-33333-3-3|
|3-----1-----1111|1111-1-11111-1-1|3-----1-----1111|1111-1-11111-1-1|

|------------****|
|------------****|
|000000000000****|
|111111111111****| the *s are muted strums. there's probably some more
|111111111111****| in the song so listen to it to know where to put them
|333333333333****| in

corus

after corus untill fade out


tip your waitresses

!~mac~!
Tap to rate this tab
# A B C D E F G H I J K L M N O P Q R S T U V W X Y Z