Song name
# A B C D E F G H I J K L M N O P Q R S T U V W X Y Z

Spill Canvas - Polygraph Right Now tab

Polygraph, Right Now!
The Spill Canvas
One Fell Swoop

Tabbed By: Alex Barrera

Email: Alexishxc1337@aol.com OR Albballer8@aol.com

Tuning: Half Step Down (Eb)

Intro (Clean):
eb|----------------------------------------------|
Bb|----------------------------------------------|
Gb|------7~---2~---4~-------------7~---2~--------|
Db|-4~---7~---2~---4~--------4~---7~---2~---2~---|
Ab|-4~---5~---0~---2~--------4~---5~---0~---2~---|
Eb|-2~-----------------------2~-------------0~---|

eb|----------------|
Bb|----------------|
Gb|----------------|
Db|-4444-4---4-4---|
Ab|-4444-4---4-4---|
Eb|-2222-2---2-2---|
    **** *   * *

Verse:
eb|-------0~--000000------------------------------|
Bb|-------3~--333333------------------------------|
Gb|-------2~--222222--------2-2-222-4-4-444-444---|
Db|-4-4---4~--444444--4-4---2-2-222-4-4-444-444---|
Ab|-4-4---0~--000000--4-4---0-0-000-2-2-222-222---|
Eb|-2-2---------------2-2-------------------------|X2 



Chorus:
Nothing difficult about the strumming, so I’ll just provide the chords.
eb|------0-------------------0-------------|
Bb|------3-------------------3-------------|
Gb|------2----2----4---------2----2--------|
Db|-4----4----2----4----4----4----2----2---|
Ab|-4----0----0----2----4----0----0----2---|
Eb|-2-------------------2--------------0---|


Pre-Verse:
eb|---------------------------------------------------------------XXXX---|
Bb|-----------------------------------222-2-2-22-222--------------XXXX---|
Gb|------------------777-7-7-77-777---444-4-4-44-444--------------XXXX---|
Db|-444-4-4-44-444---444-4-4-44-444---222-2-2-22-222---222-2-2-22-XXXX---|
Ab|-444-4-4-44-444---555-5-5-55-555---444-4-4-44-444---222-2-2-22-XXXX---|
Eb|-222-2-2-22-222-------------------------------------000-0-0-00-XXXX---|

Verse:
eb|-------0~--000000------------------------------|
Bb|-------3~--333333------------------------------|
Gb|-------2~--222222--------2-2-222-4-4-444-444---|
Db|-4-4---4~--444444--4-4---2-2-222-4-4-444-444---|
Ab|-4-4---0~--000000--4-4---0-0-000-2-2-222-222---|
Eb|-2-2---------------2-2-------------------------|X2 

Chorus:
eb|------0-------------------0-------------|
Bb|------3-------------------3-------------|
Gb|------2----2----4---------2----2--------|
Db|-4----4----2----4----4----4----2----2---|
Ab|-4----0----0----2----4----0----0----2---|
Eb|-2-------------------2--------------0---|

Solo:
eb|------------------------------------------------------------------------|
Bb|------------------------------------------------------------------------|
Gb|------------------------------------------------------------------------|
Db|----------9-9h11-9------------------------------------------------------|
Ab|-/9~-9-12----------12-11-11h12-7-7\-2/4~-4*-4\--------------------------|
Eb|-----------------------------------------------/9~-0-9-10-9-7-9-7-5-7---|X2
* indicates pinch harmonic.

NOTE: During solo, 2nd guitar plays the ‘Pre Verse’. 
Chorus:
eb|------0-------------------0-------------|
Bb|------3-------------------3-------------|
Gb|------2----2----4---------2----2--------|
Db|-4----4----2----4----4----4----2----2---|
Ab|-4----0----0----2----4----0----0----2---|
Eb|-2-------------------2--------------0---|X2

Order:

Intro
Verse
Chorus
Pre Verse
Verse
Chorus
Solo/Pre Verse
Chorus X2





| /  slide up
| \  slide down
| h  hammer-on
| p  pull-off
| ~  vibrato
| +  harmonic
| x  Mute note
===============================================================================




Tap to rate this tab
# A B C D E F G H I J K L M N O P Q R S T U V W X Y Z