Guitaretab - guitar tabs
Song name
# A B C D E F G H I J K L M N O P Q R S T U V W X Y Z

Spill Canvas - All Hail The Heartbreaker tab

-------------------------------------------------------------------------------
All Hail The Heartbreaker  The Spill Canvas
-------------------------------------------------------------------------------
Tabbed by: Jeremy Snook
Email: jd_fashizzles@hotmail.com

Awesome song by an awesome band. When you play the very first chord you can play either 
or without the D string open. It sounds good either way.

Tuning: Dropped D (DADGBe)

INTRO:

e|------x--x-------x--------x-------x--x-------x-----------------------------|
B|------x--x-------x--------x-------x--x-------x-----------------------------|
G|--2-2-x-x-2-2-2-x--2-2-2-x-2-2-2-x--x-2-2-2-x-4-/-6-\-2-------------------|
D|--4-4-x--x-4-4-4-x--4-4-2-x-2-4-4-x--x-4-4-4-x-2-/-4-\-4-0-2~--------------|
A|--5-5-x--x-5-5-5-x--5-5-5-x-5-5-5-x--x-5-5-5-x----------0------------------|
D|------x--x-------x--------x---5-5-x--x-5-5-5-x-----------------------------|

e|------x--x-------x--------x-------x--x-------x-------x---------------------|
B|------x--x-------x--------x-------x--x-------x-------x---------------------|
G|--2-2-x-x-2-2-2-x--2-2-2-x-2-2-2-x--x-2-2-2-x-2-2-2-x-2-------------------|
D|--4-4-x--x-4-4-4-x--4-4-2-x-2-4-4-x--x-4-4-4-x-4-4-2-x-2-------------------|
A|--5-5-x--x-5-5-5-x--5-5-5-x-5-5-5-x--x-5-5-5-x-5-5-5-x-5-------------------|
D|------x--x-------x--------x---5-5-x--x-5-5-5-x-5-5-5-x-5-------------------|

VERSE:
[ Tab from: http://www.guitaretab.com/s/spill-canvas/68174.html ]
      I had a notion. . . (Repeat for whole verse)
e|------x--x-------x--------x-------x--x-------x-------x---------------------|
B|------x--x-------x--------x-------x--x-------x-------x---------------------|
G|--2-2-x-x-2-2-2-x--2-2-2-x-2-2-2-x--x-2-2-2-x-2-2-2-x-2-------------------|
D|--4-4-x--x-4-4-4-x--4-4-2-x-2-4-4-x--x-4-4-4-x-4-4-2-x-2-------------------|
A|--5-5-x--x-5-5-5-x--5-5-5-x-5-5-5-x--x-5-5-5-x-5-5-5-x-5-------------------|
D|------x--x-------x--------x---5-5-x--x-5-5-5-x-5-5-5-x-5-------------------|

CHORUS (ELECTRIC):

   But that day will most likely. . .
e|---x--------------x----------x-------------x-------------------------------|
B|-3-x-3----2-------x--------3-x-3----2------x-------------------------------|
G|-4-x-4----2-----7-x-7------4-x-4----2----7-x-7-----------------------------|
D|-4-x-4----4-----7-x-7------4-x-4----4----7-x-7-----------------------------|
A|-2-x-2----5-----5-x-5------2-x-2----5----5-x-5-----------------------------|
D|---x------------5-x-5--------x-----------5-x-5-----------------------------|

VERSE 2:

    So tonight Ill sit and. . .

    ^^  V V   V  ^^ V V   V  ^ ^ V V   V VV   V VV   V
e|----------x-----------x------------x------x------x-------------------------|
B|------2-2-x-------2-2-x-0----------x------x------x-------------------------|
G|--22--2-2-x-2--44-4-4-x-4-2-2-2-2-x-2-22-x-2-22-x-2-----------------------|
D|--44--4-4-x-4--44-4-4-x-4-4-4-4-4-x-2h44-x-2h44-x-4-----------------------|
A|--55--5-5-x-5--22-2-2-x-2-5-5-5-5-x-5-55-x-5-55-x-5-----------------------|
D|----------x-----------x----5-5-5-5-x------x------x-------------------------|

Thats all I have time to tab right now, sorry.

| /  slide up
| \  slide down
| h  hammer-on
| p  pull-off
| ~  vibrato
| +  harmonic
| x  Mute note
| ^ Up stroke
| V Down stroke
===============================================================================
Related for All Hail The Heartbreaker tab