Guitaretab - guitar tabs
Song name
# A B C D E F G H I J K L M N O P Q R S T U V W X Y Z

Spill Canvas - All Hail The Heartbreakers tab

-------------------------------------------------------------------------------
     All hail heartbreakers - The Spill Canvas
-------------------------------------------------------------------------------
Tabbed by: Kevin V.
Email: Kevin_verluyten@hotmail.com

capo on 2
|------------------------------------------------------------|
|------------------------------------------------------------|
|---------------------2-4-2----------------------------------|
|-22-222-220-222--222-0/2\0----0-----------------------------|
|-33-333-333-333--333--------03------------------------------|
|------------------------------------------------------------|

|-------------|----------------------------------------------|
|-------------|----------------------------------------------|
|-------------|----------------------------------------------|
|-222-220-222-|--x10-----------------------------------------|
|-333-333-333-|----------------------------------------------|
|-------------|----------------------------------------------|

|------------------------------------------------------------|
|------------------------------------------------------------|
|------------------------------------------------------------|
|---5-5--\---------------------------------------------------|
|-3-3-3---x2-------------------------------------------------|
|-5---1--/---------------------------------------------------|

|-------------------------------------|----------------------|
|---0-------0-------------------------|----------------------|
|----0-0---0-0-0----------------------|--x4------------------|
|-22--2---2---2--2-0/22-0/22-0/22-----|----------------------|
|-33-----0-------3-3-33-3-33-3-33-----|----------------------|
|---------------1---------------------|----------------------|

|------------------------------------------------------------|
|------------------------------------------------------------|
|---------------------2-4-2----------------------------------|
|-22-222-220-222--222-0/2\0----0-----------------------------|
|-33-333-333-333--333--------03------------------------------|
|------------------------------------------------------------|

|-------------|----------------------------------------------|
|-------------|----------------------------------------------|
|-------------|----------------------------------------------|
|-222-220-222-|--x7--2-0-------------------------------------|
|-333-333-333-|------3-3-------------------------------------|
|-------------|----------------------------------------------|
[ Tab from: http://www.guitaretab.com/s/spill-canvas/68943.html ]
|------------------------------------------------------------|
|------------------------------------------------------------|
|------------------------------------------------------------|
|---5-5--\---------------------------------------------------|
|-3-3-3---x2-------------------------------------------------|
|-5---1--/---------------------------------------------------|


|-------------------------------------|----------------------|
|---0-------0-------------------------|----------------------|
|----0-0---0-0-0----------------------|--x4------------------|
|-22--2---2---2--2-0/22-0/22-0/22-----|----------------------|
|-33-----0-------3-3-33-3-33-3-33-----|----------------------|
|---------------1---------------------|----------------------|

|----0-------------------------------------------------------|
|--0---------------------------------------------------------|
|---0---x6---------------------------------------------------|
|------------------------------------------------------------|
|-3----------------------------------------------------------|
|------------------------------------------------------------|

|------------------------------------------------------------|
|------------------------------------------------------------|
|------------------------------------------------------------|
|---5-5--\---------5-------\--22-0/22--0/22------------------|
|-3-3-3---x4-2-3-3-3-7-5-3x2-33-3-33--3-33x2---------------|
|-5---1--/---0-1-5---5-3-1-/---------------------------------|


|----0-------------------------------------------------------|
|------------------------------------------------------------|
|-----5------------------------------------------------------|
|------5---------5----\-----5--------------------------------|
|-3-3------------3-(2)x7--3-3--------------------------------|
|-5--------------1-(0)/---5----------------------------------|

|------------------------------------------------------------|
|-010--------------------------------------------------------|
|----20------------------------------------------------------|
|------2-----------------------------------------------------|
|-------3-(after that the line above has been played 4 times)|
|---------(Keep playing this till the end)-------------------|

|------------------------------------------------------------|
|------------------------------------------------------------|
|------------------------------------------------------------|
|---5-5--\---------------------------------------------------|
|-3-3-3---x8-------------------------------------------------|
|-5---5--/---------------------------------------------------|
Related for All Hail The Heartbreakers tab