Song name
# A B C D E F G H I J K L M N O P Q R S T U V W X Y Z

Spill Canvas - Natalie Marie And 1cc tab

Help us improve GuitareTab! Take a short survey!
Artist: The Spill Canvas
Song: Natalie Marie And 1cc
Album: One Fell Swoop
Tabbed By: Steve Lanno (Stephen.Lanno@UConn.edu)


*Guitars tuned down 1/2 step.

Intro:
(0:00)
eb|-0~~------------|-0~------0~------|-0~~------------|-0~------0~------|
Bb|-1~~------------|-1~------1~------|-1~~------------|-1~------1~------|
Gb|-2~~------------|-0~------0~------|-2~~------------|-0~------0~------|
Db|-2~~------------|-2~------0~------|-2~~------------|-2~------0~------|
Ab|-0~~------------|-3~------2~------|-0~~------------|-3~------2~------|
Eb|----------------|-----------------|----------------|-----------------|

Guitar 2:
e|-----------------|-----7-----------|-----------------|-------7---------|
B|-----------------|---5-------------|-----------------|----5------------|
G|-----------------|-5-------5~------|-5h4-5h4-5h4-5h4-|-5---------5~----|
D|-----------------|-----------------|-----------------|-----------------|
A|-----------------|-----------------|-----------------|-----------------|
E|-----------------|-----------------|-----------------|-----------------|


Verse:
(0:15)
eb|-0~~------------|-0~------0~------|-0~~------------|-0~------0~------|
Bb|-1~~------------|-1~------1~------|-1~~------------|-1~------1~------|
Gb|-2~~------------|-0~------0~------|-2~~------------|-0~------0~------|
Db|-2~~------------|-2~------0~------|-2~~------------|-2~------0~------|
Ab|-0~~------------|-3~------2~------|-0~~------------|-3~------2~------|
Eb|----------------|-----------------|----------------|-----------------|

(0:28)
eb|-0~~-0-0-0-0-00-|-0~-0-00-0~-0-00-|-0~~-0-0-0-0-00-|-0~-0-00-0~-0-00-|
Bb|-1~~-1-1-1-1-11-|-1~-1-11-1~-1-11-|-1~~-1-1-1-1-11-|-1~-1-11-1~-1-11-|
Gb|-2~~-2-2-2-2-22-|-0~-0-00-0~-0-00-|-2~~-2-2-2-2-22-|-0~-0-00-0~-0-00-|
Db|-2~~-2-2-2-2-22-|-2~-2-22-0~-0-00-|-2~~-2-2-2-2-22-|-2~-2-22-2~-0-00-|
Ab|-0~~-0-0-0-0-00-|-3~-3-33-2~-2-22-|-0~~-0-0-0-0-00-|-3~-3-33-2~-2-22-|
Eb|----------------|-----------------|----------------|-----------------|

eb|-0~~-0-0-0-0-00-|-0~-0-00-0~-0-00-|-0~-------------|-----------------|
Bb|-1~~-1-1-1-1-11-|-1~-1-11-1~-1-11-|-1~-------------|-----------------|
Gb|-2~~-2-2-2-2-22-|-0~-0-00-0~-0-00-|-2~-------------|-----------------|
Db|-2~~-2-2-2-2-22-|-2~-2-22-0~-0-00-|-2~-------------|-----------------|
Ab|-0~~-0-0-0-0-00-|-3~-3-33-2~-2-22-|-0~-------------|-----------------|
Eb|----------------|-----------------|----------------|-----------------|


Pre-Chorus:
(Bass) (0:43)
eb|----------------------------------------|
Bb|----------------------------------------|
Gb|----------------------------------------|
Db|----------------------------------------|
Ab|--------------------------3-3-----------|
Eb|-5-5--3-3--1-1--1-1--5-5-------3-3--1-1-|

eb|---------------------------------------------------------------|
Bb|---------------------------------------------------------------|
Gb|---------------------------------------------------------------|
Db|---------------------------------------------------------------|
Ab|--------------------------3-3----------------------------------|
Eb|-5-5--3-3--1-1--3-3--5-5-------3-3-3-3-3-3-1-1-1-1-1-1-3-3-3-3-|


Chorus:
(0:59)
eb|-1------0------|-0------3------|-1------0------|-0------3------|
Bb|-1------1------|-1------3------|-1------1------|-1------3------|
Gb|-2------2------|-0------0------|-2------2------|-0------0------|
Db|-3------2------|-2------0------|-3------2------|-2------0------|
Ab|-3------0------|-3------2------|-3------0------|-3------2------|
Eb|-1-------------|--------3------|-1-------------|--------3------|

(1:12)
eb|-1--1-1-1-1-1--|-0--0-0-0-0-0--|-0--0-0-0-0-0--|-3--3-3-3-3-3--|
Bb|-1--1-1-1-1-1--|-1--1-1-1-1-1--|-1--1-1-1-1-1--|-3--3-3-3-3-3--|
Gb|-2--2-2-2-2-2--|-2--2-2-2-2-2--|-0--0-0-0-0-0--|-0--0-0-0-0-0--|
Db|-3--3-3-3-3-3--|-2--2-2-2-2-2--|-2--2-2-2-2-2--|-0--0-0-0-0-0--|
Ab|-3--3-3-3-3-3--|-0--0-0-0-0-0--|-3--3-3-3-3-3--|-2--2-2-2-2-2--|
Eb|-1--1-1-1-1-1--|---------------|---------------|-3--3-3-3-3-3--|

eb|-1--1-1-1-1-1--|-0--0-0-0-0-0--|-0--0-0-0-0-0--|-3--3-3-3-3-3--|
Bb|-1--1-1-1-1-1--|-1--1-1-1-1-1--|-1--1-1-1-1-1--|-3--3-3-3-3-3--|
Gb|-2--2-2-2-2-2--|-2--2-2-2-2-2--|-0--0-0-0-0-0--|-0--0-0-0-0-0--|
Db|-3--3-3-3-3-3--|-2--2-2-2-2-2--|-2--2-2-2-2-2--|-0--0-0-0-0-0--|
Ab|-3--3-3-3-3-3--|-0--0-0-0-0-0--|-3--3-3-3-3-3--|-2--2-2-2-2-2--|
Eb|-1--1-1-1-1-1--|---------------|---------------|-3--3-3-3-3-3--|


Back to Intro:
Guitar 1:
(1:26)
eb|-0~~------------|-0~------0~------|-0~~-------------|-0~------0~------|
Bb|-1~~------------|-1~------1~------|-1~~-------------|-1~------1~------|
Gb|-2~~------------|-0~------0~------|-2~~-------------|-0~------0~------|
Db|-2~~------------|-2~------0~------|-2~~-------------|-2~------0~------|
Ab|-0~~------------|-3~------2~------|-0~~-------------|-3~------2~------|
Eb|----------------|-----------------|-----------------|-----------------|

Guitar 2:
e|-----------------|-------7---------|-----------------|-------7---------|
B|-----------------|----5------------|-----------------|----5------------|
G|-----------------|-5---------5~----|-5h4-5h4-5h4-5h4-|-5---------5~----|
D|-----------------|-----------------|-----------------|-----------------|
A|-----------------|-----------------|-----------------|-----------------|
E|-----------------|-----------------|-----------------|-----------------|


Verse 2:
(1:39)
eb|-0~~------------|-0~------0~------|-0~~------------|-0~------0~------|
Bb|-1~~------------|-1~------1~------|-1~~------------|-1~------1~------|
Gb|-2~~------------|-0~------0~------|-2~~------------|-0~------0~------|
Db|-2~~------------|-2~------0~------|-2~~------------|-2~------0~------|
Ab|-0~~------------|-3~------2~------|-0~~------------|-3~------2~------|
Eb|----------------|-----------------|----------------|-----------------|

(1:53)
eb|-0~~-0-0-0-0-00-|-0~-0-00-0~-0-00-|-0~~-0-0-0-0-00-|-0~-0-00-0~-0-00-|
Bb|-1~~-1-1-1-1-11-|-1~-1-11-1~-1-11-|-1~~-1-1-1-1-11-|-1~-1-11-1~-1-11-|
Gb|-2~~-2-2-2-2-22-|-0~-0-00-0~-0-00-|-2~~-2-2-2-2-22-|-0~-0-00-0~-0-00-|
Db|-2~~-2-2-2-2-22-|-2~-2-22-0~-0-00-|-2~~-2-2-2-2-22-|-2~-2-22-2~-0-00-|
Ab|-0~~-0-0-0-0-00-|-3~-3-33-2~-2-22-|-0~~-0-0-0-0-00-|-3~-3-33-2~-2-22-|
Eb|----------------|-----------------|----------------|-----------------|

eb|-0~~-0-0-0-0-00-|-0~-0-00-0~-0-00-|-0~-------------|-----------------|
Bb|-1~~-1-1-1-1-11-|-1~-1-11-1~-1-11-|-1~-------------|-----------------|
Gb|-2~~-2-2-2-2-22-|-0~-0-00-0~-0-00-|-2~-------------|-----------------|
Db|-2~~-2-2-2-2-22-|-2~-2-22-0~-0-00-|-2~-------------|-----------------|
Ab|-0~~-0-0-0-0-00-|-3~-3-33-2~-2-22-|-0~-------------|-----------------|
Eb|----------------|-----------------|----------------|-----------------|


Pre-Chorus:
(Bass) (2:07)
eb|----------------------------------------|
Bb|----------------------------------------|
Gb|----------------------------------------|
Db|----------------------------------------|
Ab|--------------------------3-3-----------|
Eb|-5-5--3-3--1-1--1-1--5-5-------3-3--1-1-|

eb|---------------------------------------------------------------|
Bb|---------------------------------------------------------------|
Gb|---------------------------------------------------------------|
Db|---------------------------------------------------------------|
Ab|--------------------------3-3----------------------------------|
Eb|-5-5--3-3--1-1--3-3--5-5-------3-3-3-3-3-3-1-1-1-1-1-1-3-3-3-3-|


Chorus:
(2:24)
eb|-1------0------|-0------3------|-1------0------|-0------3------|
Bb|-1------1------|-1------3------|-1------1------|-1------3------|
Gb|-2------2------|-0------0------|-2------2------|-0------0------|
Db|-3------2------|-2------0------|-3------2------|-2------0------|
Ab|-3------0------|-3------2------|-3------0------|-3------2------|
Eb|-1-------------|--------3------|-1-------------|--------3------|

(2:37)
eb|-1--1-1-1-1-1--|-0--0-0-0-0-0--|-0--0-0-0-0-0--|-3--3-3-3-3-3--|
Bb|-1--1-1-1-1-1--|-1--1-1-1-1-1--|-1--1-1-1-1-1--|-3--3-3-3-3-3--|
Gb|-2--2-2-2-2-2--|-2--2-2-2-2-2--|-0--0-0-0-0-0--|-0--0-0-0-0-0--|
Db|-3--3-3-3-3-3--|-2--2-2-2-2-2--|-2--2-2-2-2-2--|-0--0-0-0-0-0--|
Ab|-3--3-3-3-3-3--|-0--0-0-0-0-0--|-3--3-3-3-3-3--|-2--2-2-2-2-2--|
Eb|-1--1-1-1-1-1--|---------------|---------------|-3--3-3-3-3-3--|

eb|-1--1-1-1-1-1--|-0--0-0-0-0-0--|-0--0-0-0-0-0--|-3--3-3-3-3-3--|
Bb|-1--1-1-1-1-1--|-1--1-1-1-1-1--|-1--1-1-1-1-1--|-3--3-3-3-3-3--|
Gb|-2--2-2-2-2-2--|-2--2-2-2-2-2--|-0--0-0-0-0-0--|-0--0-0-0-0-0--|
Db|-3--3-3-3-3-3--|-2--2-2-2-2-2--|-2--2-2-2-2-2--|-0--0-0-0-0-0--|
Ab|-3--3-3-3-3-3--|-0--0-0-0-0-0--|-3--3-3-3-3-3--|-2--2-2-2-2-2--|
Eb|-1--1-1-1-1-1--|---------------|---------------|-3--3-3-3-3-3--|


Bridge:
Guitar 1:
(2:57)
eb|-1-------------|-0-------------|-0-------------|-3-------------|
Bb|-1-------------|-1-------------|-1-------------|-3-------------|
Gb|-2-------------|-0-------------|-2-------------|-0-------------|
Db|-3-------------|-2-------------|-2-------------|-0-------------|
Ab|-3-------------|-3-------------|-0-------------|-2-------------|
Eb|-1-------------|---------------|---------------|-3-------------|

Guitar 1:
(2:58)
eb|---------------|---------------|---------------|---------------|
Bb|---------------|---------------|---------------|---------------|
Gb|--7-7/9~~------|--7-7/9~~------|--7-7/9~~------|--7-7/9~~------|
Db|---------5-7p5-|---------5-7p5-|---------5-7p5-|---------5-7p5-|
Ab|---------------|---------------|---------------|---------------|
Eb|---------------|---------------|---------------|---------------|

(3:26)
eb|-1--1-1-1-1-1--|-0--0-0-0-0-0--|-0--0-0-0-0-0--|-3--3-3-3-3-3--|
Bb|-1--1-1-1-1-1--|-1--1-1-1-1-1--|-1--1-1-1-1-1--|-3--3-3-3-3-3--|
Gb|-2--2-2-2-2-2--|-0--0-0-0-0-0--|-2--2-2-2-2-2--|-0--0-0-0-0-0--|
Db|-3--3-3-3-3-3--|-2--2-2-2-2-2--|-2--2-2-2-2-2--|-0--0-0-0-0-0--|
Ab|-3--3-3-3-3-3--|-3--3-3-3-3-3--|-0--0-0-0-0-0--|-2--2-2-2-2-2--|
Eb|-1--1-1-1-1-1--|---------------|---------------|-3--3-3-3-3-3--|


Chorus:
(3:52)
eb|-1------0------|-0------3------|-1------0------|-0------3------|
Bb|-1------1------|-1------3------|-1------1------|-1------3------|
Gb|-2------2------|-0------0------|-2------2------|-0------0------|
Db|-3------2------|-2------0------|-3------2------|-2------0------|
Ab|-3------0------|-3------2------|-3------0------|-3------2------|
Eb|-1-------------|--------3------|-1-------------|--------3------|

(4:06)
eb|-1--1-1-1-1-1--|-0--0-0-0-0-0--|-0--0-0-0-0-0--|-3--3-3-3-3-3--|
Bb|-1--1-1-1-1-1--|-1--1-1-1-1-1--|-1--1-1-1-1-1--|-3--3-3-3-3-3--|
Gb|-2--2-2-2-2-2--|-2--2-2-2-2-2--|-0--0-0-0-0-0--|-0--0-0-0-0-0--|
Db|-3--3-3-3-3-3--|-2--2-2-2-2-2--|-2--2-2-2-2-2--|-0--0-0-0-0-0--|
Ab|-3--3-3-3-3-3--|-0--0-0-0-0-0--|-3--3-3-3-3-3--|-2--2-2-2-2-2--|
Eb|-1--1-1-1-1-1--|---------------|---------------|-3--3-3-3-3-3--|

eb|-1--1-1-1-1-1--|-0--0-0-0-0-0--|-0--0-0-0-0-0--|-3--3-3-3-3-3--|
Bb|-1--1-1-1-1-1--|-1--1-1-1-1-1--|-1--1-1-1-1-1--|-3--3-3-3-3-3--|
Gb|-2--2-2-2-2-2--|-2--2-2-2-2-2--|-0--0-0-0-0-0--|-0--0-0-0-0-0--|
Db|-3--3-3-3-3-3--|-2--2-2-2-2-2--|-2--2-2-2-2-2--|-0--0-0-0-0-0--|
Ab|-3--3-3-3-3-3--|-0--0-0-0-0-0--|-3--3-3-3-3-3--|-2--2-2-2-2-2--|
Eb|-1--1-1-1-1-1--|---------------|---------------|-3--3-3-3-3-3--|

Ending:
(4:20)
eb|-1~------------|-0~------------|-0~------------|
Bb|-1~------------|-1~------------|-1~------------|
Gb|-2~------------|-0~------------|-2~------------|
Db|-3~------------|-2~------------|-2~------------|
Ab|-3~------------|-3~------------|-0~------------|
Eb|-1~------------|---------------|---------------|


Questions? Comments? Requests?: Stephen.Lanno@UConn.edu
Related for Natalie Marie And 1cc tab