Song name
# A B C D E F G H I J K L M N O P Q R S T U V W X Y Z

Spill Canvas - All Hail The Heart Breaker tab

#----------------------------------PLEASE NOTE--------------------------------#
#This file is the author's own work and represents their interpretation of the#
#song. This is not the offical tab so do not take this as the correct tabs #
#-----------------------------------------------------------------------------
i could see we here didnt have this version so i borrowed it from another site so yea, 
FIGHT ABOUT IT?!

E---3-3---3-3-3---3-3-3---3-3-------------------------------------------------------|
A---5-5---5-5-5---5-5-5---5-5-------------------------------------------------------|
D---4-4---4-4-4---5-5-5---4-4-----------(6)-(4)-------------------------------------|
G------------------------------(5h6)-(4)---(played once for intro)------------------|
B-----------------------------------------------------------------------------------|
e-----------------------------------------------------------------------------------|

Riff 2

E---3-3-3---3-3-3---3-3-3---3-3-3---3-3-3---3-3-3-----------------------------------|
A---5-5-5---5-5-5---5-5-5---5-5-5---5-5-5---5-5-5-----------------------------------|
D---4-4-4---5-5-5---4-4-4---4-4-4---5-5-5---4-4-4-----------------------------------|
G-----------------------------------------------------------------------------------|
B-----------------------------------------------------------------------------------|
e-----------------------------------------------------------------------------------|

Chorus

E-----------------3-3--------------5-5-5--------------------------------------------|
A--3-3------------5-5-(let ring)---7-7-7---(played like triplets)-------------------|
D--5-5-(let ring)-5-5--------------7-7-7---------(let ring)-------------------------|
G--5-5------------------------------------------------------------------------------|
B-----------------------------------------------------------------------------------|
e-----------------------------------------------------------------------------------|

Fill 1

E---------------------5----------------3-3------------------------------------------|
A--5--------------------7--------------5-5-5-5------5-----5-------------------------|
D----7-7------------------7----------------4-4--2-4-4-2-4-4-------------------------|
G------6-(let ring)-------6-(let ring)----------------------------------------------|
B-----------------------------------------------------------------------------------|
e-----------------------------------------------------------------------------------|

Fill 2

E--------------------5--------------------------------------------------------------|
A-3------------------7---(Let Ring)-------------------------------------------------|
D-5--(let ring)------7--------------------------------------------------------------|
G-3---------------------------------------------------------------------------------|
B-----------------------------------------------------------------------------------|
e-----------------------------------------------------------------------------------|

Fill 3

E-----------------------------------------------------------------------------------|
A-----------------------------------------------------------------------------------|
D--0----------0-----------0---------------------------------------------------------|
G------7-----------7------------7---------------------------------------------------|
B----5----7------5----7------5-----7------------------------------------------------|
e-----------------------------------------------------------------------------------|

Last Verse I(guitar 1)
E------------------5-5-------------3---3---3----3---3---3----------------------------|
A-3-3--------------7-7-(let ring)--5---5---5----5---5---5----------------------------|
D-5-5-(let ring)---7-7-------------5---5---5----5---5---5----------------------------|
G-4-4-----------------------------(4)-(4)-(4)--(4)-(4)-(4)---------------------------|
B------------------------------------------------------------------------------------|
e------------------------------------------------------------------------------------|

Last Verse II(guitar 2)

E------------------------------------------------------------------------------------|
A------------------------------------------------------------------------------------|
D-----------7--7---------------------------------------------------------------------|
G--6--7--6---------------------------------------------------------------------------|
B------------------------------------------------------------------------------------|
e------------------------------------------------------------------------------------|


Riff 1
Riff 2(can't be arsed to count how many times)
Chorus x 2
Fill 1 x 4
Riff 1
Riff 2
Fill 2
Chorus x 2
Fill 1 x 4
Fill 1(chords) + Fill 3
Chorus(distortion)
Last Verse I and II(figure out rhythm for second geetar yourself)
Chorus(Distortion)

PEACE SUCKA!
Tap to rate this tab
 
# A B C D E F G H I J K L M N O P Q R S T U V W X Y Z