Song name
# A B C D E F G H I J K L M N O P Q R S T U V W X Y Z

Spill Canvas - Bound To Happen tab

This is my first tab. Cut me some slack. Its not 100%, but close...


Guitar 1:(0:00-0:14)
E ----------------------------------------------|
B ---3----3------3---3------3---3-----3----3----|
G --2----2-2----2---2-2----2---2-2---0----2-2---|
D ------0----------0----------0----------0------|
A -2----------2----------2----------------------|
E -----3----------3----------3------0---2-------|

(0:14-0:26)
E ----------------------------------------------|
B ---3----3------3---3------3---3-----3-----3---|
G --2----2-2----2---2-2----2---2-2---2-2---2-2--|
D ------0----------0----------0-----------0-----|
A -2----------2----------2----------2-----------|
E -----3----------3----------3-----------3------|

Guitar 2:(0:13-0:27)
E -x------------------------x-----------------------|
B -3---------------10-------3-----------------------|
G -2--------------7---------2-----------------------|
D -x-----------7h9----------x------------2h4-4-2p0--|
A -2------------------------2---------------------2-|
E -x------------------------x-----------------------|

(0:27-0:40)
   I use to...              Until Today...
E -x------------------------x-----------------------|
B -3---------------10-------3-----------------------|
G -2--------------7---------2-----------------------|
D -x-----------7h9----------x-----------2h4-4-2p0---|
A -2------------------------2--------------------2--|
E -x------------------------x-----------------------|


(0:41-0:56)
   Your chest would...      Til Tonight...
E -x------------------------x--------------------------------|
B -3---------------10-------3-------------------------2h3p2--|
G -2--------------7---------2------------------------2-------|
D -x-----------7h9----------x-----------2h4-4-2p0------------|
A -2------------------------2--------------------2-----------|
E -x------------------------x--------------------------------|

Great Song + its pretty easy if you play it a few times...

Still workin on the rest of the song...
Tap to rate this tab
 
# A B C D E F G H I J K L M N O P Q R S T U V W X Y Z