Song name
# A B C D E F G H I J K L M N O P Q R S T U V W X Y Z

Spill Canvas - Your Evil Soul tab

INTRO
E|-------1P0------------------------------------|
B|----------------------------------------------|
G|-----------------------3XXX3333---------------|
D|-0~------------000-----3XXX3333---------------|
A|-0~------------000-----1XXX1111---------------|
D|-0~------------000----------------------------|


E|----------------------------------------------|
B|----------------------------------------------|
G|-22222222-33333333-22222222----333--5555------|
D|-22222222-33333333-22222222----333--5555------|
A|-00000000-11111111-00000000----111--3333------|
D|----------------------------------------------|


E|----------------------------------------------|
B|----------------------------------------------|
G|--555-5-----33333333--------------------------|
D|--555-5-----33333333-----2X-------------------|
A|--333-3-----11111111--------------------------|
D|----------------------------------------------|


E|----------------------------------------------|
B|----------------------------------------------|
G|-22222222-33333333-22222222----333--5555------|
D|-22222222-33333333-22222222----333--5555------|
A|-00000000-11111111-00000000----111--3333------|
D|----------------------------------------------|

            "I WILL SUCK THE ELIXER..."
E|-------------1P0---------------------------------|
B|-------------------------------------------------|
G|----------------------------------------33333333-|
D|-3333-0------------0000-----ON-3RD-TIME-33333333-|
A|-3333-0------------0000-----------------11111111-|
D|-3333-0------------0000--------------------------|

E|----------------------------------------------|
B|----------------------------------------------|
G|-22222222-33333333-22222222----333--5555------|
D|-22222222-33333333-22222222----333--5555------|
A|-00000000-11111111-00000000----111--3333------|
D|----------------------------------------------|

E|-------1P0------------------------------------|
B|----------------------------------------------|
G|-----------------------3XXX3333---------------|
D|-0~------------000-----3XXX3333---------------|
A|-0~------------000-----1XXX1111---------------|
D|-0~------------000----------------------------|

E|----------------------------------------------|
B|----------------------------------------------|
G|-22222222-33333333-22222222----333--5555------|
D|-22222222-33333333-22222222----333--5555------|
A|-00000000-11111111-00000000----111--3333------|
D|----------------------------------------------|

E|----------------------------------------------|
B|----------------------------------------------|
G|--555-5-----33333333--------------------------|
D|--555-5-----33333333-----2X-------------------|
A|--333-3-----11111111--------------------------|
D|----------------------------------------------|

E|----------------------------------------------|
B|----------------------------------------------|
G|-22222222-33333333-22222222----333--5555------|
D|-22222222-33333333-22222222----333--5555------|
A|-00000000-11111111-00000000----111--3333------|
D|----------------------------------------------|

            "I WILL SUCK THE ELIXER..."
E|-------------1P0---------------------------------|
B|-------------------------------------------------|
G|----------------------------------------33333333-|
D|-3333-0------------0000-----ON-3RD-TIME-33333333-|
A|-3333-0------------0000-----------------11111111-|
D|-3333-0------------0000--------------------------|

    "and ill be convulsing..."
E|----------------------------------------------|
B|----------------------------------------------|
G|-33333333---555555555-------------------------|
D|-33333333---555555555-------------------------|
A|-11111111---333333333-------------------------|
D|----------------------------------------------|

       "i know you never meant......."
E|----------------------------------------------|
B|----------------------------------------------|
G|-----------555555555-----------333333333------|
D|--33333333-555555555-555555555-333333333------|
A|--33333333-333333333-555555555-111111111------|
D|--33333333-----------555555555----------------|

            "I WILL SUCK THE ELIXER..."
E|-------------1P0---------------------------------|
B|-------------------------------------------------|
G|----------------------------------------33333333-|
D|-3333-0------------0000-----ON-3RD-TIME-33333333-|
A|-3333-0------------0000-----------------11111111-|
D|-3333-0------------0000--------------------------|
Tap to rate this tab
# A B C D E F G H I J K L M N O P Q R S T U V W X Y Z