Song name
# A B C D E F G H I J K L M N O P Q R S T U V W X Y Z

Spill Canvas - Staplegunned tab

-------------------------------------------------------------------------------
			Staplegunned-The Spill Canvas
-------------------------------------------------------------------------------
Tabbed by: Kelia
Email: motorider_13@hotmail.com

So this is my first tab, sorry if its messy or not really understandable.

Tuning:1/2 down

Verse

e|------------------------------|-------------------|
B|------------------------------|-------------------|
G|-4444-------------------------|-4444--------------|
D|-4444-------------------------|-4444--------------|
A|-0202-------------------------|-0202--22220000----|
E|------------------------------|---------------22--|
        "It was in the lobby..."        PM........
        "We were all alone..."

e|-----------------------|------------------------|
B|-----------------------|------------------------|
G|-4444-----444499991111-|----7-------------------|
D|-4444-----444499991111-|----7---------------5---|
A|-0202-----222277779-9--|----5---------------5---|
E|-----------------------|--------------------3---|
            Crescendo....        
        "Should've kissed...But I was too scared to"
        "It didn't work.......You know how I do"   

e|------------------------------|-------------------|
B|------------------------------|-------------------|
G|-4444-------------------------|-4444--------------|
D|-4444-------------------------|-4444--------------|
A|-0202-------------------------|-0202--22220000----|
E|------------------------------|---------------22--|
       "It was in the morning..."       PM........
       "We were on the phone..."

e|-----------------------|------------------------|--------------|
B|-----------------------|------------------------|--------------|
G|-4444-----444499991111-|----7-------------------|--------------|
D|-4444-----444499991111-|----7---------------5---|--------7-----|
A|-0202-----222277779-9--|----5---------------5---|--------7-----|
E|-----------------------|--------------------3---|--------5-----|
            Crescendo....
        "I want you staple....to my side all of the time...Whoa"

Chorus (These are just the chords, listen for strum pattern)

e|-------------------------------------------|
B|-------------------------------------------|
G|-------7----------7----------7-------------|2x
D|-55----7--7--5----7--7--5----7--7--10--5---|
A|-55----5--7--5----5--7--5----5--7--10--5---|
E|-33-------5--3-------5--3-------5--8---3---|

Post-Chorus

e|--------------------------------------------|
B|--------------------------------------------|
G|-4444----4-4-4--2-2------444--4-2------2-2--|
D|-4444---------------4-4--444------4--4------|
A|-0202--------------------202----------------|
E|--------------------------------------------|

Repeat Verse

Repeat Chorus 2x

Bridge

e|-------------------------------------|
B|-------------------------------------|
G|-------------------------------------|3x
D|-----4--5-4------------4--5-4--------|
A|-0202--------------0202--------------|
E|------------3-33-3------------0-2-3--|

Ending Chorus

e|--------------------------------------------|
B|--------------------------------------------|
G|-------7----------7----------7--------------|
D|-55----7--7--5----7--7--5----7--7--10--5----|
A|-55----5--7--5----5--7--5----5--7--10--5----|
E|-33-------5--3-------5--3-------5--8---3----|
  Clean..............................Distortion

e|-------------------------------------------|
B|-------------------------------------------|
G|-------7----------7----------7-------------|2x
D|-55----7--7--5----7--7--5----7--7--10--5---|
A|-55----5--7--5----5--7--5----5--7--10--5---|
E|-33-------5--3-------5--3-------5--8---3---|

e|--------|
B|--------|
G|-4444---|
D|-4444---|
A|-0202---|
E|--------|
Tap to rate this tab
 
# A B C D E F G H I J K L M N O P Q R S T U V W X Y Z