Song name
# A B C D E F G H I J K L M N O P Q R S T U V W X Y Z

Spill Canvas - Break A Leg tab

-----------------------------------------------------------------------------
			     Break a Leg - the Spill Canvas
-----------------------------------------------------------------------------
Tabbed by: whatsernamex
Email:/

Here's the intro.. i hope i can work the whole tab out one day. Have funn.x

Tuning: Standard.


e|--------------------------------------------------------------------------|
B|-------------------------------0-------------------------------4----------|
G|--------------------------3--3-----------------------1---1--3-------------|
D|--------2--1-----1-----1---------------4---4---1--------------------------|
A|--------------2-----------------------------------------------------------|
E|---4----------------------------------------------------------------------|


Thats it =D



=============================================================================

Tap to rate this tab
# A B C D E F G H I J K L M N O P Q R S T U V W X Y Z