Song name
# A B C D E F G H I J K L M N O P Q R S T U V W X Y Z

Spill Canvas - Polygraph Right Now Acoustic tab

Artist: The Spill Canvas
Song: Polygraph, Right Now! Acoustic
You can find the video for this on youtube.
Tuning: Half step down...its noted on the tab.

note:
Im pretty sure this is close to 100% right. The only thing im not sure about its the 
he plays, but they sound
alright to me. (that part is also noted in the tab.)
YOu'll have to forgive my horrible tabbing. I know I cant do it like the pro's do it. 
hey,
the song is pretty much right.

IntroX2
eb--------------------------|
Bb----------2~--------------|
Gb------7~--2~--4---(X2)----|
Db-4~---7~--2~--4~----------|
Ab-4~---5~------2~----------|
Eb-2~-----------------------|

then
eb-------------------|
Bb-------------------|
Gb-------------------|
Db-444xxx44xx444x----|
Ab-444xxx44xx444x----|
Eb-222xxx22xx222x----|

Verse
eb--22-----|---------------|
Bb--33-----|-222-----------|
Gb--22-----|-222-4444------|
Db------44-|-222-4444------|
Ab------44-|-----2222------|
Eb------22-|---------------|

Chorus
eb-----2222--------------------|
Bb-----3333--2222--------------|
Gb-----2222--2222--4444--------|
Db-444-------2222--4444-(X2)---|
Ab-444-------------2222--------|
Eb-222-------------------------|

when nick says "my jewel encrusted..." play:
eb-----|-------------|
Bb-----|-------------|
Gb-----|-instead of--|
Db-222x|44x444x------|
Ab-222x|44x444x------|
Eb-000x|22x222x------|

Nick plays this bridge between the choruses and the verses.
Im not completely sure if this is right but its sounds ok to me.
eb-----------------------------|
Bb-----------------------------|
Gb---------666-66-666/-444-44--|
Db-444-44--444-44-444/-222-22--|
Ab-444-44--555-55-555/-333-33--|
Eb-222-22----------------------|
Tap to rate this tab
 
# A B C D E F G H I J K L M N O P Q R S T U V W X Y Z