Song name
# A B C D E F G H I J K L M N O P Q R S T U V W X Y Z

Spill Canvas - Himerus Eros tab

Himerus and Eros
The Spill Canvas
One Fell Swoop
Standard Tuning
Nataku *JJ Murphy*

Pretty sure this is the last tab left on the entire One Fell Swoop album for Ultimate-Guitar. woo! 


intro

  0:00-0:17  0:18
|----------- ---|
|----0---0-- ---|
|---4-4-4-3- -4-|
|--4---4---- -4-|
|-2---2----- -2-|
|----------- ---|
              .
pre-verse  verse        pre-chorus

|-0~----- ------- -0~--------------|
|-0~----- ------- -0~--------------|
|-4~-4-4- --play- -4~-4-4--------4-|
|-4~-4-4- --the-- -4~-4-4-444444-4-|
|-2~-2-2- -intro- -2~-2-2-444444-2-|
|-------- ------- --------222222---|
                          ......

chorus

|-2-0-|
|-2-0-|
|-3-4-|
|-4-4-|
|-4-2-|
|-2---|
 *strum each about 8 or 10 times

post-chorus

|----------------------|
|---------------2p0----|
|-3h4p3h4p3h4p3p0--3p0-|
|----------------------|
|----------------------|
|----------------------|




pre chorus part 2 (the palm mute thing)

 <-----------repeat a lot---------------->
|-------------------------------------------------|
|-------------------------------------------------|
|--------------------------------------------4-4~-|
|-44444444444444444-4-44444444444444444444-4-4-4~-|
|-44444444444444444-4-44444444444444444444-4---2~-|
|-22222222222222222-2-22222222222222222222-2------|
  .................   ....................


intro
pre-verse
verse
pre-chorus
chorus
post-chorus
pre-verse
verse
pre-chorus
chorus
post-chorus
verse
pre-chorus part 2
chorus

Tap to rate this tab
# A B C D E F G H I J K L M N O P Q R S T U V W X Y Z