Song name
# A B C D E F G H I J K L M N O P Q R S T U V W X Y Z

Spill Canvas - To Live Without It tab

To Live Without It
The Spill Canvas
Denial Feels So Good
Half-Step Tuning
Eb Ab Db Gb Bb eb
Nataku

im doing this from memory, so this is a little skeleton to play around with.
when i get the chance to listen and play along again ill update it

woo.


intro
|--------------------|
|--------------------|
|--------------------|
|--------------------|
|----5-7-7/9-9-7-5-7-|
|-5-7--------7-9-3-5-|

guitar 1 beginning riff
|---------------|
|---------------|
|---------------|
|-7-------------|
|--7-9-5-7h9p7-5|
|--------------3|

beginning riff
|--------------|
|-2h3p2h3p2----|
|----------2-4-|
|--------------|
|--------------|
|--------------|

chorus
|-------------------|
|-------------------|
|-------------------|
|-------------------|
|-99999-555555-7777-|
|-77777-333333-5555-|

ending riff
|---------|
|-3p0---3-|
|----2/4--|
|---------|
|---------|
|---------|
Tap to rate this tab
 
# A B C D E F G H I J K L M N O P Q R S T U V W X Y Z