Song name
# A B C D E F G H I J K L M N O P Q R S T U V W X Y Z

Spin Doctors - Two Princes tab

-----------------------------------------------------------------
Two Princes (full solo) - Spin Doctors
-----------------------------------------------------------------
Tabbed by: Fenhemn
Tuning: EADGBE

E|----------------------------------|-------------------------------------|
B|----------------------------------|-------------------------------------|
G|----------------------------------|-------------------------------------|
D|---------3b-0-0-00---------3b-----|------------3b-0-5-0-7-10-1010-12\---|
A|-/5-5-55------------/5-5-55-------|-0h2-0/5-5-55------------------------|
E|----------------------------------|-------------------------------------|


E|---------------------------------------------------------------------|
B|--------------15-----1212-12-15-13b--------14b--14-12----------------|
G|-----------------------------------14---14------------14-------------|
D|-12-14-12-14b--------------------------------------------14b-14-1414-|
A|---------------------------------------------------------------------|
E|---------------------------------------------------------------------|


E|----------------------------------------------------|
B|----------------------------------------------------|
G|--------------------------------------------12------|
D|----------12-----------------------12-14-12----12---|
A|-14141414----14b-14b-12---10-12-14------------------|
E|----------------------------------------------------|


E|-----------------------------------|
B|------15----------15---------------|
G|-14b----12----14b----14-12---12-14-|
D|---------------------------14------|
A|-----------------------------------|
E|-----------------------------------|


E|--------------------------------------------|
B|--------------------------------------------|
G|14b-14-13-12-10b----------------------------|
D|----------------12-10-----------------------|
A|-----------------------12-11-10-12-10-9-----|
E|----------------------------------------10\-|


E|---------------------------------------------|
B|------------------------------15-------------|
G|---------12-------14-1212-14b----14-12-------|
D|-12-14-12---14-12----------------------------|
A|---------------------------------------------|
E|---------------------------------------------|


E|-----------------------------------15---------------------------|
B|-----17-----------------------17b-----17-15-----1515------------|
G|-16b---16-14----1414--1414r-----------------16b------16-14------|
D|-------------16-----16------------------------------------------|
A|----------------------------------------------------------------|
E|----------------------------------------------------------------|


E|-----------------------------------------------------------------|
B|--17b--17b17b17b17b17b17b17b17b-15-17-15\------------------------|
G|-----------------------------------------------------------------|
D|-----------------------------------------------------------------|
A|-----------------------------------------------------------------|
E|------------------------------------------(0)/-------------------|
        ^Release gently from the bend on each pick

Hope this helps in any way
Tap to rate this tab
# A B C D E F G H I J K L M N O P Q R S T U V W X Y Z