Song name
# A B C D E F G H I J K L M N O P Q R S T U V W X Y Z

Spin Doctors - Nice Talking To Me tab

Nice talking to me (Spin Doctors)
from the album of the same name, which is fantastic by the way!

(standard tuning)

Riff:
|------------------------------------------------|
|---------------------------------------------3--|
|---------------------------------------------2--|
|---------------------------------------------0--|
|-----------3--------------3--------------0------|
|--5--5-3-5---5-3-5--5-3-5---5-0-2--2-0-2---2----|

This is also the pattern for the whole song. The corresponding chords used are A, then 
then D.

Intro solo:
|-------------------------------------------------------------|
|-------------------------------------------------------------|
|--5~-----7-5-----5---7--5~-----5~-----7-5---7br-5---7--5-----|
|------7------7~----7-------7-------7--------------7------7~--|
|-------------------------------------------------------------|
|-------------------------------------------------------------|

Solo (2x):
|----------------------------------------------------------------|
|-------------------------------------------------7b--r7-5-7-5~--|
|-------------------------------------------------7b--r7-5-7-5~--|
|------------5-5h7~----------5-5h7~-----------5------------------|
|------5-6-7-----------5-6-7------------5-6-7---7----------------|
|--5-8--------------5-8-------------5-8--------------------------|


Please note this is a very simple tab I figured out almost "by accident". Erik Schenkman 
some variations mainly on the

chorus and bridge. Any corrections or complements are always welcome on 
. Rock on!
Tap to rate this tab
# A B C D E F G H I J K L M N O P Q R S T U V W X Y Z