Song name
# A B C D E F G H I J K L M N O P Q R S T U V W X Y Z

Spin Doctors - Margarita tab

Margarita (Spin Doctors)
from the album Nice talking to me (which is indeed awesome by the way)

(standard tuning)

Main riff / rhythm throughout whole song:
G - Cadd9 - Am - D

where Cadd9 is
-3-
-3-
-0-
-2-
-3-
---

Passage in the main riff (after Cadd9):
G|--0-0-2-2-2h4-2p0--|

Passage in 2nd verse:
|--------------------------------------|
|--------------------------------------|
|---------------------0-0-2-2-2h4-2p0--|
|-------------2/5----------------------|
|------2/5--3--------------------------|
|--/3----------------------------------|

Bridge:
Cadd9 - G - D/F# - D/F#

where D/F# is
-2-
-3-
-3-
-0-
-x-
-2-

Solo:
         F             C                  F             C        D       G (back to verse)
|------------------------------------------------------------------5---5-----|
|------5-6--5----5---5------------------5-6--5----5---5---5---5--7---7---8~--|
|--5-7---------7---7---5~--5~--5~---5-7---------7---7---7---7----------------|
|----------------------------------------------------------------------------|
|----------------------------------------------------------------------------|
|----------------------------------------------------------------------------|

Complements or corrections please send to marcos.nagato@gmail.com
Enjoy!
Tap to rate this tab
# A B C D E F G H I J K L M N O P Q R S T U V W X Y Z