Song name
# A B C D E F G H I J K L M N O P Q R S T U V W X Y Z

Spin Doctors - Mary Jane tab

Here are the solos and some fills for this amazing song.
It's all in D major, mostly blues pentatonic but with an occasional 4th. There are lots
lots of fills and details throughout the song, some are barely audible. I also sometimes
it quite difficult to get the notes because of his amazing tone, for whatever reason. So 
couple of things may be off. But anyway, I tabbed the intro solo and the main solo
are both really cool, as well as a couple of fills.

Tuning is standard.

Intro:
|--10-------------2--------------------------------|
|--13b~--10\7/10----3-----------3---7h8------------|
|---------------------4p2~--2h4-----7------7-------|
|---------------------------------------9--7h9-7~--|
|--------------------------------------------------|
|--------------------------------------------------|

--/14~--14--14--12--10------------------------------------|
--/15~--15--15--12--10-10-12-10--10-------7---------------|
-----------------------------11-----10/11-7---------------|
---------------------------------------------5-4-5--7-----|
------------------------------------------------------5~--|
----------------------------------------------------------|

Fill after first chorus (not so sure):
B|--/10--12----------10---10h12-10~--|
G|----------11-----x----11-----------|


Solo:
|--10----------------------------------------------|
|-----13b---10----------10-13b--13r-10-------------|
|--------------10b--7~-----------------12-10b--7~--|
|--------------------------------------------------|
|--------------------------------------------------|
|--------------------------------------------------|

-------------------------------------------------------------|
--7--7/10-----------------10------------------------7--10----|
----------7-7~------7--9b----9r-7---------------7---------2--|
----------------7h9---------------9-7-----7-7h9---9-------2--|
--------------------------------------7h9-----------------0--|
-------------------------------------------------------------|

(ending is probably off)

Most relevant fill in the end, after Chris shouts "Mary Jane", and that sounds quite
to the vocal line:
|--10-8----------|
|-------10b-7~~--|

That's it, hope you enjoy. Any corrections or comments please send to marcos.nagato@gmail.com
Tap to rate this tab
# A B C D E F G H I J K L M N O P Q R S T U V W X Y Z