Song name
# A B C D E F G H I J K L M N O P Q R S T U V W X Y Z

Spin Doctors - Refrigerator Car tab

Name:Refrigerator Car
Band:Spin Doctors
Album:Pocketful of Kryptonite
By:Sam King

Standard Tuning
time signature for the intro is 9/4, for those of u hu dont get that,
the two bass drum beats are the first two, so count until 9 after that at the same rate!
Intro
e---------|---------------|---------------|---------------
b---------|---------------|---------------|---------------
g---------|---------------|---------------|---------------
D---------|---------------|---------------|---------------
A---------|---------------|---------------|-7~~~~~~~~~~~~~
E--3--/5--|--0~~~~~~~~~~~~|~~~~~~~~~3--/5-|---------------

                      let ring
e----------------|---------------|---------------|-----------|--------------|
b----------------|---------------|---------------|-----------|--------------|
g----------------|------7--------|---------------|-----------|--------------|
D----------------|------6--------|---------------|-----------|--------------|
A-~~~~~~~--------|---------------|---------------|-7~~~~~~~~~|~~~7-5--------|
E---------3--/5--|--0~~~~~~~~~~~~|~~~~~~~~~3--/5-|-----------|-------7-5-3-5|

Main Riff
e---------------------------|
b--------8------------------|
g--------7------------------|
D--------6------------------|x11
A--------7-----7-5----------|
E--0--0------------7-5-3-5--|

Verse
e--------------|
b--------------|
g--2--0--2-----|
D--------------|x a lot!
A--------------|
E--------------|

Chorus
e-------------------------|
b---------------------------|
g--7-------------9-------9--|
D--7--8--8-------9-------9--|x 4
A--5--8--8-------7-------7--|
E-----6--6--0--0---0--0-----|
            PM==   ====

Verse
Chorus
Verse
Riff x4
Bass Solo

Guitar Solo                                  
e--------10--9---7--|7h9p7----------|-------7-(8)--7----|-------------------|
b--10~~~------------|-------8~~~~~--|-6--8--------------|-6--8--5(6)---(6)5-|
g-------------------|---------------|-------------------|-------------------|
D-------------------|---------------|-------------------|-------------------|
A-------------------|---------------|-------------------|-------------------|
E-------------------|---------------|-------------------|-------------------|

e----------------|-------------------|------------------|-2---5--------5--|
b----------------|---------2(3)------|---------2----5---|---------5(7)----|
g--0--2---4(6)---|-----2-------------|-----2h4----4---4-|---4----4--------|
D----------------|-2h4---------------|-2h4--------------|-----------------|
A----------------|-------------------|------------------|-----------------|
E----------------|-------------------|------------------|-----------------|

e---------------------|
b--(7)5-p2------------|
g----------4(6)---4---|
D---------------------|
A---------------------|
E---------------------|

hope thats ok! sounds pretty accurate to me
Tap to rate this tab
 
# A B C D E F G H I J K L M N O P Q R S T U V W X Y Z