Song name
# A B C D E F G H I J K L M N O P Q R S T U V W X Y Z

Spinal Tap - Rock N Roll Creation tab

chorus
|---------------------------------------------|
|---------------------------------------------|
|---------------------------------------------|
|---333---5---6-----xxxx----3--5--7-----------|
|---333---5---6-----xxxx----3--5--7-----------|
|---111---3---4-----xxxx----1--3--5-----------|



Verses
|---------------------------------------------|
|---------------------------------------------|
|---------------------------------------------|
|-------------3-4------------4-5-5------------|
|-------------3-4------------4-5-5------------|
|----0000000--1-2---0000000--2-3-3------------|
Tap to rate this tab
# A B C D E F G H I J K L M N O P Q R S T U V W X Y Z