Guitaretab - guitar tabs
Song name
# A B C D E F G H I J K L M N O P Q R S T U V W X Y Z

Spinal Tap - Hell Hole tab

-------------------------------------------------------------------------------
			     SONG NAME - Band Name
-------------------------------------------------------------------------------
Tabbed by:
Email:

Tuning: Standard

Intro
e|--------|
B|--------|
G|-767----|
D|-76795--|
A|-54595--|
E|----73--|

[ Tab from: http://www.guitaretab.com/s/spinal-tap/143225.html ]
Verse (played thrice)    ()notes on first time only
e|----------------------------------(3)-(3)----------------------------|
B|----------------------------------(3)-(3)----------------------------|
G|---------------------------------------------575---------------------|
D|-777-xx--555-xx--777-xx--777-xx-22--55--7--77---7--------------------|
A|-777-xx--555-xx--777-xx--777-xx-22--55--7----------------------------|
E|-555-xx--333-xx--555-xx--555-xx-00--33--5----------------------------|
pm ..      ..      ..      ..
e|----------------------------------(3)-(3)----------------------------|
B|----------------------------------(3)-(3)----------------------------|
G|-------------------------------------------767-----------------------|
D|-777-xx--555-xx--777-xx--777-xx-22--55--7--76795---------------------|
A|-777-xx--555-xx--777-xx--777-xx-22--55--7--54595---------------------|
E|-555-xx--333-xx--555-xx--555-xx-00--33--5-----73---------------------|
pm ..      ..      ..      ..

Pre-chorus
e|--------------------------------------------------------------------------|
B|--------------------------------------------------------------------------|
G|--------------------------------------------------------------------------|
D|-7777777777777777---------------------------------------------------------|
A|-7777777777777777---------------------------------------------------------|
E|-5555555555555555---------------------------------------------------------|
pm  ...............

Chorus
e|------------|----|----------------------------------------------------------|
B|------------|----|----------------------------------------------------------|
G|-9-9---7----|----|--9-9-----------------------------------------------------|
D|-9-9---7--7-|-x3-|--9-9---4-7---------2-5---------0-3--------2--------------|
A|-7-7---5--7-|----|--7-7--5------4-7--3------2-5--1-----0-3---2--------------|
E|----------5-|----|-------------5-----------3----------1------0--------------|


| /  slide up
|   slide down
| h  hammer-on
| p  pull-off
| ~  vibrato
| +  harmonic
| x  Mute note
===============================================================================
Related for Hell Hole tab
Advertisement will be closed in 10 seconds