Song name
# A B C D E F G H I J K L M N O P Q R S T U V W X Y Z

Spinal Tap - Big Bottom tab

Highlighted       Show chord diagrams
...BIG BOTTOM... by Spinal Tap
----------------..............

*from 'Spinal Tap:
The Original Soundtrack' (1984)*


Intro:

(Drums)

*(Riff 1):

(Bass)

e|-------------------------|
B|-------------------------|
G|--------------5-4-5-4-5--|
D|--------------5-4-5-4-5--|
A|--3-0-3--5-5-------------|
E|-------------------------| (x6)

Verse 1:

    D
The bigger the cushion;
The sweeter the pushin',
            *(Riff 1)
That's what I said,
    D
The looser the waistband;
The deeper the quicksand,
           *(Riff 1)
Or so I have read.

Bridge 1:

A
 My baby fits me,
Like a flesh tuxedo;
F
 I'd like to sink her,
        G
With my pink torpedo.

Chorus 1:

C
 Big bottom,
Bb
 Big bottom,
Eb
 Talk about bum cakes;
F
 My girl's got 'em.

C
 Big bottom drive me,
Bb
 Out of my mind,
Eb
 How could I leave,
        A
This be-hind?

Interlude:

(Bass)

e|-------------------------|
B|-------------------------|
G|--------------5-4-5-4-5--|
D|--------------5-4-5-4-5--|
A|--3-0-3--5-5-------------|
E|-------------------------| (x2)

Verse 2:

  D
I met her on Monday;
'Twas my lucky bun day,
              *(Riff 1)
You know what I mean,
  D
I love her each weekday;
Each velvety cheek day,
              *(Riff 1)
You know what I mean.

Bridge 2:

A
 My love gun's loaded,
And she's in my sights;
F
 Big game is,
Waiting there,
   G
In-side her tights, yeah.

Chorus 2:

C
 Big bottom,
Bb
 Big bottom,
Eb
 Talk about mud flaps;
F
 My girl's got 'em.

C
 Big bottom drive me,
Bb
 Out of my mind,
Eb
 How could I leave,
        A
This be-hind?

Interlude:

(Bass)

e|-------------------------|
B|-------------------------|
G|--------------5-4-5-4-5--|
D|--------------5-4-5-4-5--|
A|--3-0-3--5-5-------------|
E|-------------------------| (x4)

Bridge 3:

A
 My baby fits me,
Like a flesh tuxedo;
F
 I'd like to sink her,
        G
With my pink torpedo.

Chorus 3:

C
 Big bottom,
Bb
 Big bottom,
Eb
 Talk about bum cakes;
F
 My girl's got 'em.

C
 Big bottom drive me,
Bb
 Out of my mind,
Eb
 How could I leave,
        A
This be-hind?

Outro:

A


CHORD DIAGRAMS:
---------------

   D       A       F       G       C       Bb      Eb

 EADGBE  EADGBE  EADGBE  EADGBE  EADGBE  EADGBE  EADGBE
 x57775  577655  133211  355433  x35553  x13331  x68886


Tabbed by Joel from cLuMsY, Bristol, England, 2006
(clumsyband@hotmail.com)
Tap to rate this tab
 
# A B C D E F G H I J K L M N O P Q R S T U V W X Y Z