Song name
# A B C D E F G H I J K L M N O P Q R S T U V W X Y Z

Spinal Tap - Stonehenge tab

-------------------------------------------------------------------------------
			     Stonehenge- Spinal Tap
-------------------------------------------------------------------------------
Tabbed by: Eddy Hitler (Gary)
Email: Twopencepiece@hotmail.com

this is the little solo type thing in Stonehenge. theres other versions of this up, 
this but with chords, so ive left them out. this took me a while to work out , so please let 
know what you think, rate it please.thanx

Tuning: Standard


                  “Part 1”
e|-------------||-----------------5-5----10-9-10-12-10-----7-8-8-10-8-7-------|
B|-------------||--------5-7-7-8-----------------------10---------------10----|
G|--7--7--7--7-||-----7-------------------------------------------------------|
D|-------------||-------------------------------------------------------------|
A|-------------||-------------------------------------------------------------|
E|-------------||-------------------------------------------------------------|

e|--7-8-7-8-10-12-|----------------5-5--10-9-10-12-10----7--8--10-8-7—-5h7p5--|
B|----------------|------5-5h7-7-8--------------------10----------------------|
G|----------------|---7-------------------------------------------------------|
D|----------------|-----------------------------------------------------------|
A|----------------|-----------------------------------------------------------|
E|----------------|-----------------------------------------------------------|
                               “Part 2”
e|----------------------|-<---<--|----------15--17--17--15--------15----------|
B|---8-5---3h5p3-----3--|-Repeat-|---15h17------------------15-17----17-15-13-|
G|----------------5-----|-Part 1-|--------------------------------------------|
D|----------------------|--Four--|--------------------------------------------|
A|----------------------|--Times-|--------------------------------------------|
E|----------------------|-<---<--|--------------------------------------------|

e|---------------12-14-15-17--15-14—12h14-----------|--------15-17-17-15------|
B|------12-13-15---------------------------15-12-10-|--15h17-------------15-17|
G|--14----------------------------------------------|-------------------------|
D|--------------------------------------------------|-------------------------|
A|--------------------------------------------------|-------------------------|
E|--------------------------------------------------|-------------------------|

e|-15------15---------------7-8-10-8-7-5h7p5-----------------|----------------|
B|-----17------17-15-13--10------------------8-5-3h5p3----3--|---Repeat-------|
G|------------------------------------------------------5----|---Part-2-------|
D|-----------------------------------------------------------|----Four--------|
A|-----------------------------------------------------------|----Times-------|
E|-----------------------------------------------------------|----------------|

e|------------------------|---------------------------------------------------|
B|------------------------|---------------------------------------------------|
G|--7--7--7--7----7----7--|---------------------------------------------------|
D|------------------------|---------------------------------------------------|
A|------------------------|---------------------------------------------------|
E|------------------------|---------------------------------------------------|
Tap to rate this tab
 
# A B C D E F G H I J K L M N O P Q R S T U V W X Y Z