Song name
# A B C D E F G H I J K L M N O P Q R S T U V W X Y Z

Spinal Tap - Stone Henge tab

Spinal Tap
"Stone Hendge"
I know the whole tab isnt here but this is like the only
tab of this song on the net (tabed by CHRIS GOODWIN)

Intro played 2x (played with windy sounds)
(0:01)
E--9--7/1--7--6-----5--4---------------------------------------||
B----------------4--------2--2--3--5--3------------------------||
G----------------------------------------2---------------------||
D-------------------------------------------2--3--0------------||
A--------------------------------------------------------------||
E--------------------------------------------------------------||

Stone hendge were the deamons dwell.....
(1:05)
E--8--12--10--7--8--10--14--12---------------------------------||
B-------------------------------11--12-------------------------||
G--------------------------------------------------------------||
D--------------------------------------------------------------||
A--------------------------------------------------------------||
E--------------------------------------------------------------||

E--------------------------------------------------------------||
B--------------------------------------------------------------||
G--------------------------------------------------------------||
D--------------------------------------------------------------||
A--------------------------------------------------------------||
E--------------------------------------------------------------||
solo
E-5----5----5----5--------------2------------2----5-----5------||
B-3----3----3----3----3----5-----------5-----------------------||
G--------------------------------------------------------------||
D--------------------------------------------------------------||
A--------------------------------------------------------------||
E--------------------------------------------------------------||

E-8---7--8---10---8----------------------------------------------------||
B----------------------------------------------------------------------||
G----------------------------------------------------------------------||
D----------------------------------------------------------------------||
A----------------------------------------------------------------------||
E----------------------------------------------------------------------||

Simpler FOLK SOLO


E--------------------------------------------------------------||
B--10----10---10----10-----------7-----7---10-10---8--7--8-----||
G--7-----7----7-----7-----7--9------9--------------------------||
D--------------------------------------------------------------||
A--------------------------------------------------------------||
E--------------------------------------------------------------||

E--------------------------------------------------------------||
B-10---8-------------------------------------------------------||
G--------------------------------------------------------------||
D--------------------------------------------------------------||
A--------------------------------------------------------------||
E--------------------------------------------------------------||
Tap to rate this tab
# A B C D E F G H I J K L M N O P Q R S T U V W X Y Z